Cifras e Tablaturas
Fugazi

Fugazi

Great Cop

Cifras Cancelar Versão de Impressão
cifras

Fugazi - Great Cop

fixar na tela  
Exibindo: vídeo-aula ver clipes redimensionar

Tom:

  
Intro (decreasingly palm muted bass) 

(The timing here is 1-2-3-1-2-3-1-2-3-1-2-3-1-2-3-4) 

e|----------------------------------| 
B|----------------------------------| 
G|----------------------------------| 
D|-7-7-7-------7-7-7--------9-9-9---| 
A|-------7-7-7-------7-7-7--9-9-9---| 
E|--------------------------7-7-7---| 

(I've put the bass notes in there to show the structure. Gtrs just play the last 3 notes). 

Verse: 

e|-------------------------------------| 
B|-------------------------------------| 
G|-9-9-9---------9-9-9-----------------| 
D|-7-7-7--9-9-9--7-7-7--9-9-9--9-9-9-9-| 
A|--------7-7-7---------7-7-7--9-9-9-9-| 
E|-----------------------------7-7-7-7-| 

Chorus: 

e|-------------|--------------------------------|----------------------------------| 
B|-------------|--------------------------------|----------------------------------| 
G|-2--2--------|--------------------------------|----------------------------------| 
D|-2--2--11-11-|-6-6-6-6--9-9--11-11-11-11--9-9-|-6-6-6-6--9-9--11-11-11-11--11-11-| 
A|-0--0---9--9-|-4-4-4-4--7-7---9--9--9--9--9-9-|-4-4-4-4--7-7---9--9--9--9---9--9-| 
E|-------------|----------------------------7-7-|----------------------------------| 

e|--------------------------------|--------------| 
B|--------------------------------|--------------| 
G|--------------------------------|--------------| 
D|-6-6-6-6--9-9--11-11-11-11--9-9-|-6-6-6-6--9-9-| 
A|-4-4-4-4--7-7---9--9--9--9--9-9-|-4-4-4-4--7-7-| 
E|----------------------------7-7-|--------------| 

e|----------|----------|----------|----------|-------------| 
B|----------|----------|----------|----------|-------------| 
G|----------|----------|----------|----------|-------------| 
D|-11-11-11-|-11-11-11-|-11-11-11-|-11-11-11-|-11-11-11-11-| 
A|--9--9--9-|--9--9--9-|--9--9--9-|--9--9--9-|--9--9--9--9-| 
E|----------|----------|----------|----------|-------------| 

This last part is played in the triplet feel from the intro. One of the gtrs is playing a power chord, 
the other one is playing an octave shape 

Bridge: 

Gtr 1 2x 

e|-------------|-------------|-------------|-------------| 
B|-------------|-------------|-------------|-------------| 
G|-11-11-11-11-|-11-11-11-11-|-11-11-11-11-|-11-11-11-11-| 
D|-------------|-------------|-------------|-------------| 
A|--9--9--9--9-|--9--9--9--9-|--9--9--9--9-|--9--9--9--9-| 
E|-------------|-------------|-------------|-------------| 

verse 2: 

4x 

e|-------------------------------------| 
B|-------------------------------------| 
G|-9-9-9---------9-9-9-----------------| 
D|-7-7-7--9-9-9--7-7-7--9-9-9--9-9-9-9-| 
A|--------7-7-7---------7-7-7--9-9-9-9-| 
E|-----------------------------7-7-7-7-| 

Chorus: 

e|-----------|--------------------------------|----------------------------------| 
B|-----------|--------------------------------|----------------------------------| 
G|-2--2------|--------------------------------|----------------------------------| 
D|-2--2--9-9-|-6-6-6-6--9-9--11-11-11-11--4-4-|-6-6-6-6--9-9--11-11-11-11--11-11-| 
A|-0--0--7-7-|-4-4-4-4--7-7---9--9--9--9--2-2-|-4-4-4-4--7-7---9--9--9--9---9--9-| 
E|-----------|--------------------------------|----------------------------------| 

e|--------------------------------|--------------| 
B|--------------------------------|--------------| 
G|--------------------------------|--------------| 
D|-6-6-6-6--9-9--11-11-11-11--4-4-|-6-6-6-6--9-9-| 
A|-4-4-4-4--7-7---9--9--9--9--2-2-|-4-4-4-4--7-7-| 
E|--------------------------------|--------------| 

e|----------|----------|----------|----------|-------------| 
B|----------|----------|----------|----------|-------------| 
G|----------|----------|----------|----------|-------------| 
D|-11-11-11-|-11-11-11-|-11-11-11-|-11-11-11-|-11-11-11-11-| 
A|--9--9--9-|--9--9--9-|--9--9--9-|--9--9--9-|--9--9--9--9-| 
E|----------|----------|----------|----------|-------------| 

Middle: 

(Last 2 notes in each measure are tied) 

   * * * * * * * * *   * * * * * * * * *   * * * * * * * * *   * * * * * * * * * 
e|-------------------|-------------------|-------------------|-------------------| 
B|-------------------|-------------------|-------------------|-------------------| 
G|-3-3-3-3-3-3-3-3-3-|-------------------|-------------------|-------------------| 
D|-------------------|-4-4-4-4-4-4-4-4-4-|-------------------|-------------------| 
A|-------------------|-------------------|-5-5-5-5-5-5-5-5-5-|-------------------| 
E|-------------------|-------------------|-------------------|-6-6-6-6-6-6-6-6-6-| 

   * * * * * * * * *   * * * * * * * * *   * * * * * * * * *    
e|-------------------|-------------------|-------------------| 
B|-------------------|-------------------|-------------------| 
G|-3-3-3-3-3-3-3-3-3-|-------------------|-------------------| 
D|-------------------|-4-4-4-4-4-4-4-4-4-|-------------------| 
A|-------------------|-------------------|-5-5-5-5-5-5-5-5-5-| 
E|-------------------|-------------------|-------------------| 

   * * * * * * * *   * * * * * * * *   * * * * * * * *   * * * * * * * *   * 
e|-----------------|-----------------|-----------------|-----------------|----------------| 
B|-----------------|-----------------|-----------------|-----------------|----------------| 
G|-----------------|-----------------|-----------------|-----------------|----------------| 
D|-----------------|-----------------|-----------------|-----------------|----------------| 
A|-----------------|-----------------|-----------------|-----------------|----------------| 
E|-6-6-6-6-6-6-6-6-|-6-6-6-6-6-6-6-6-|-6-6-6-6-6-6-6-6-|-6-6-6-6-6-6-6-6-|-6--------------| 

Ending: 

7x 

e|-------------------------------------| 
B|-------------------------------------| 
G|-9-9-9---------9-9-9-----------------| 
D|-7-7-7--9-9-9--7-7-7--9-9-9--9-9-9-9-| 
A|--------7-7-7---------7-7-7--9-9-9-9-| 
E|-----------------------------7-7-7-7-| 

This is played 4x with the Verse feel and 3x with the Intro feel 

Last measure is: 

e|------------------------------| 
B|------------------------------| 
G|-9-9-9---------9-9-9----------| 
D|-7-7-7--9-9-9--7-7-7--9-9-9-9-| 
A|--------7-7-7---------9-9-9-9-| 
E|----------------------7-7-7-7-| 

************************************ 

| *    Natural harmonic 

************************************ 
  

top 5 | fugazi
top punk rock
Outras músicas do artista letras do(a) Fugazi
Top cifras »Top artistas »
Petaxxon Comunicação Online
Cifras.com.br - Melhor e mais completo site de cifras e tablaturas do Brasil
Mais de 1 milhão de acordes de músicas cadastradas desde 2003
As informações contidas no nosso site são colaborações de seus usuários e podem conter erros, sendo assim, não nos responsabilizamos sobre nenhuma destas.
close
menos
mais
close
Cor dos acordes:

Cor da letra:

 

save
close
close
 
redimensionar