Cifras e Tablaturas
Fuzzy Box

Fuzzy Box

Novos Erros

Cifras Cancelar Versão de Impressão

Fuzzy Box - Novos Erros

Tom: E

  			Intr: 
E -0-0-0-0-0-0-0-0-12-12-12-12------------------------- 
A -2-2-2-2-2-2-2-2-14-14-14-14------------------------- 
D -2-2-2-2-2-2-2-2-14-14-14-14-14-14-14---------------- 
G -----------------------------16-16-16---------------- 
B -----------------------------16-16-16---------------- 
E ----------------------------------------------------- 
 
Verso  
E ----------------------------------------------------- 
A -7-7-7-7-5-5-5-5-2-2-2-2-3-3-3-3--------------------- 
D -9-9-9-9-7-7-7-7-4-4-4-4-5-5-5-5--------------------- 
G -9-9-9-9-7-7-7-7-4-4-4-4-5-5-5-5--------------------- 
B ----------------------------------------------------- 
E ----------------------------------------------------- 
 
Ponte: 
E ----------------------------------------------------- 
A -5-5-5-5--------------------------------------------- 
D -7-7-7-7--------------------------------------------- 
G -7-7-7-7--------------------------------------------- 
B ----------------------------------------------------- 
E ----------------------------------------------------- 
 
Refrão 
E ---------3-3-3-3------------------------------------- 
A -7-7-5-3-5-5-5-5------------------------------------- 
D -9-9-7-5-5-5-5-5------------------------------------- 
G -9-9-7-5--------------------------------------------- 
B ----------------------------------------------------- 
E ----------------------------------------------------- 
 
solo (1) 
E ----------------------------------------------------- 
A -7-7-7-7-5-5-5-5-2-2-2-2-3-3-3-3--------------------- 
D -9-9-9-9-7-7-7-7-4-4-4-4-5-5-5-5--------------------- 
G -9-9-9-9-7-7-7-7-4-4-4-4-5-5-5-5--------------------- 
B ----------------------------------------------------- 
E ----------------------------------------------------- 
 
Solo (2) 
E -2-2-2-2--------------------------------------------- 
A -4-4-4-4-2-2-2-2-----4-2----------------------------- 
D -4-4-4-4-4-4-4-4-2-2-6-4----------------------------- 
G ---------4-4-4-4-4-4-6-4----------------------------- 
B -----------------4-4--------------------------------- 
E ----------------------------------------------------- 
Verso  
E ----------------------------------------------------- 
A -7-7-7-7-5-5-5-5-2-2-2-2-3-3-3-3--------------------- 
D -9-9-9-9-7-7-7-7-4-4-4-4-5-5-5-5--------------------- 
G -9-9-9-9-7-7-7-7-4-4-4-4-5-5-5-5--------------------- 
B ----------------------------------------------------- 
E ----------------------------------------------------- 
 
Ponte: 
E ----------------------------------------------------- 
A -5-5-5-5--------------------------------------------- 
D -7-7-7-7--------------------------------------------- 
G -7-7-7-7--------------------------------------------- 
B ----------------------------------------------------- 
E ----------------------------------------------------- 
 
Refrão 
E ---------3-3-3-3------------------------------------- 
A -7-7-5-3-5-5-5-5------------------------------------- 
D -9-9-7-5-5-5-5-5------------------------------------- 
G -9-9-7-5--------------------------------------------- 
B ----------------------------------------------------- 
E ----------------------------------------------------- 
 
Solo (3) 
E --------------7-7-7-7-------------------------------- 
A -7----7-7-7-7-9-9-9-9-------------------------------- 
D -9----9-9-9-9-9-9-9-9-------------------------------- 
G -9----9-9-9-9---------------------------------------- 
B ----------------------------------------------------- 
E ----------------------------------------------------- 
 
Refrão 
E ---------3-3-3-3------------------------------------- 
A -7-7-5-3-5-5-5-5------------------------------------- 
D -9-9-7-5-5-5-5-5------------------------------------- 
G -9-9-7-5--------------------------------------------- 
B ----------------------------------------------------- 
E ----------------------------------------------------- 
 
Fim 
E ----------------------------------------------------- 
A -5-5-5-7--------------------------------------------- 
D -7-7-7-9--------------------------------------------- 
G -7-7-7-9--------------------------------------------- 
B ----------------------------------------------------- 
E ----------------------------------------------------- 

    	
fixar
fixar inscrever-se

enviado porenviado por: Smurfzito
cifra enviadaCorrigida por: sem correções
logo top cifrasComente
ico música do artistaMúsicas deste artista
ico curtiuCurtiu?
ico destaqueDestaque
Petaxxon Comunicação Online

Cifras.com.br - Melhor e mais completo site de cifras e tablaturas do Brasil Mais de 1 milhão de acordes de músicas cadastradas desde 2003
As informações contidas no nosso site são colaborações de seus usuários e podem conter erros, sendo assim, não nos responsabilizamos sobre nenhuma destas.

close
menos
mais
close
Cor dos acordes:

Cor da letra:

close
Alinhar acordes a direita Alinhar acordes a esquerda Alinhar acordes em baixo Alinhar acordes no topo
close
  Mostrar todos os acordes Esconder acordes muito fáceis Esconder acordes fáceis Esconder acordes intermediários
redimensionar
glossário