Cifras e Tablaturas
Gallows

Gallows

In The Belly Of A Shark

Cifras Cancelar Versão de Impressão Print

Gallows - In The Belly Of A Shark

Tom:

  • 0:00 / 0:00
  			    Intro 
E---------------------| 
B---------------------| 
G---------------------| 
D---------------------| 
A---5-3-6-3---5-3-6-3-| 
E-0---------0---------| 

    Verse 
E-----------------------| 
B-----------------------| 
G-----------------------| 
D-2-2-4-5---------------| 
A-0-0-2-3-7-7-----------| 
E---------5-5-0-5-3-6-3-| 

    Chorus 
E-----------------------| 
B-----------------------| 
G-----------------2-2-2-| 
D-2-2-4-5---------2-2-2-| 
A-0-0-2-3-7-5-5-5-2-2-2-| 
E---------5-5-5-5-------| 
    	

enviado porenviado por: Indestructible
cifra enviadaCorrigida por: sem correções
logo top cifrasComente
ico música do artistaMúsicas deste artista
ico curtiuCurtiu?
ico destaqueDestaque
Petaxxon Comunicação Online

Cifras.com.br - Melhor e mais completo site de cifras e tablaturas do Brasil Mais de 1 milhão de acordes de músicas cadastradas desde 2003
As informações contidas no nosso site são colaborações de seus usuários e podem conter erros, sendo assim, não nos responsabilizamos sobre nenhuma destas.

close
menos
mais
close
Cor dos acordes:

Cor da letra:

close
Alinhar acordes a direita Alinhar acordes a esquerda Alinhar acordes em baixo Alinhar acordes no topo
close
  Mostrar todos os acordes Esconder acordes muito fáceis Esconder acordes fáceis Esconder acordes intermediários
redimensionar
glossário