Cifras e Tablaturas
Garoto

Garoto

Gente Humilde

Cifras Cancelar Versão de Impressão
cifras

Garoto - Gente Humilde

fixar na tela  
Exibindo: vídeo-aula ver clipes redimensionar

Tom:

  ex 1 

---------------------------2-2-2-2-------5-2-------------------- 
-------------5-5-5-5-----4-------------3------------------------ 
-6-6-6-----4-----------2-------------2-------------------------- 
---------7------------------------------------------------------ 
-------4-------------3-------------2---------------------------- 
---------------------------------------------------------------- 

ex 2 

----------9------9---9-------7-7-7\-----4------4---------------- 
-7-7-7---------7---8------7------------------0--------6--------- 
-------------7----------7------------------6----------7--------- 
------------------------------------------------------6--------- 
-------------------------------------0-------------7------------ 
-------0-----------------------------------------0-------------- 

Ex 3 

---------7-7-7-7\----5-----2-2-2---5-----5-----2---------------- 
-5-5-5------------------4--------------3-----3------------------ 
------------------------2------------2-----2-------------------- 
---------------------------------------------------------------- 
-------4-----------3-------------2------------------------------ 
---------------------------------------------------------------- 


Ex 4 

---------5------5-5-5-5--------4--------------4----------------- 
-7-7-7--------7--------------6----5-5-5-----5------------------- 
------------7--------------7--------------4--------------------- 
---------------------------------------------------------------- 
----------------------------------------0----------------------- 
-------0-----------------0-------------------------------------- 


Ex 5  

---------------------2---2-2-2----5------5-----2-2-2-2---9------ 
---------5-----5-----------------------3-----3---------------7-- 
-6-6-6-------4---------2-------------2-----2---------------7---- 
-----------7---------------------------------------------------- 
-------4----------3------------2-------------------------------- 
-------------------------------------------------------0-------- 



---------7-6-7/---12-------------------------------------------- 
---8---9---------------0---0---------2-------------------------- 
-7---7---------------0---0---0-----0---------------------------- 
---------------------------------2------------------------------ 
-------------------------------0-------------------------------- 
----------------0----------------------------------------------- 


Ex 6  

-12-14-12\---------------------------9-----------------0--0--0-- 
-----------------10-10-10-10------10---10\--6---0------2-------- 
--------------11---------------10------------------2---0-------- 
------------0----------------0---------------------2------------ 
----------------------------------------------0------1---------- 
---------------------------------------------------------------- 



---2------2-2-2---9-----9-----9-9-9---5------------------------- 
-------3--------------7-----9-------------0--------------------- 
-----2--------------7-----7-------------6----------------------- 
---------------------------------------------------------------- 
-2----------------------------------0--------------------------- 
----------------0----------------------------------------------- 

Ex 7 

-12-14-12---12-------10------------10----10----10-9------------- 
------------------10----10----10--------------------10-------2-- 
---------------11-----------10--10----10-------------------3---- 
----------0----------------0-----------------------------2------ 
---------------------------------------------0------------------ 
-------------------------------------------------------2-------- 



-9/10-9----9-----7---------------9\7---7-----5------------------ 
---------------7---7----------5------------5-------------------- 
-------------7--------------7------------6---------------------- 
--------------------------6------------------------------------- 
------------------------7------------0-------------------------- 
---------7------------0----------------------------------------- 
  

top 5 | garoto
top música clássica
Outras músicas do artista letras do(a) Garoto
Top cifras »Top artistas »
Petaxxon Comunicação Online
Cifras.com.br - Melhor e mais completo site de cifras e tablaturas do Brasil
Mais de 1 milhão de acordes de músicas cadastradas desde 2003
As informações contidas no nosso site são colaborações de seus usuários e podem conter erros, sendo assim, não nos responsabilizamos sobre nenhuma destas.
close
menos
mais
close
Cor dos acordes:

Cor da letra:

 

save
close
close
 
redimensionar