Cifras e Tablaturas
Garoto

Garoto

Lamentos Do MorroTablatura Verificada

Cifras Cancelar Versão de Impressão

Garoto - Lamentos Do Morro

Tom: G

  			
Afinação Padrão: EADGBe  

----------------------------------------------------------------  
----------------------------------------------------------------  
-----------------------------0-0-0-0-----------0-0-0-0----------  
-----------------------------0-0-0-0-----------0-0-0-0----------  
--5-5-5-5--5-5-5-5--5-5-5-5--5-5-5-5--5-5-5-5--5-5-5-5--5-5-5-5-  
--------------------0-0-0-0-----------0-0-0-0-----------0-0-0-0-  

----------------------------------------------------------------  
--------------------------------------------------------0-0-0---  
-0-0-0-0------------0-0-0-----------0-0-0-0-----0-0-0---0-0-0---  
-0-0-0-0------------0-0-0--0-0-0-0--0-0-0-0-----0-0-0---0-0-0---  
-5-5-5-5---5--5--5--5-5-5--5-5-5-5--5-5-5-5-----5-5-5---5-5-5---  
-----------0--0--0---------0-0-0-0-----------0----------0-0-0---  

----------------------------------------------------------------  
-0---0-0---0---0--0---0-----------------------------------------  
-0---0-0---0---0--0---0-----------------------------------------  
-0---0-0---0---0--0---0-----------------------------------------  
-5---5-5---5---5--5---5-----------------------------------------  
-0---0-0---0---0--0---0-----------------------------------------  

-----------------------------+-----------------------------------  
-----------------------------+-----------------------------------  
-----------------------------+-----------------------------------  
-0-0-0-0---0-0-0-0--0-0-0-0--+--0-0-0-0--------------------------  
-5-5-5-5---5-5-5-5--5-5-5-5--+-----------------------------------  
-0-0-0-0---0-0-0-0--0-0-0-0--+-----------------------------------  

----6-------5---------6-------5---------------------------------  
----8-------7---------8-------7---------------------------------  
----5-------5---------5-------5---------------------------------  
-0-----0-0-----0-0-0-----0-0-----0-0-0-0------------------------  
----------------------------------------------------------------  
----------------------------------------------------------------  

----4-------3---------4-------3---------------------------------  
----5-------4---------5-------4---------------------------------  
----3-------3---------3-------3---------------------------------  
-0-----0-0-----0-0-0-----0-0-----0-0-0-0------------------------  
----------------------------------------------------------------  
----------------------------------------------------------------  

----6-------5---------6-------5---------------------------------  
----8-------7---------8-------7---------------------------------  
----5-------5---------5-------5---------------------------------  
-0-----0-0-----0-0-0-----0-0-----0-0-0-0------------------------  
----------------------------------------------------------------  
----------------------------------------------------------------  

----4-------4-------4-------4-------4---------------------------  
----6-------6-------6-------6-------6---------------------------  
----4-------4-------4-------4-------4---------------------------  
-0-----0-0-----0-0-----0-0-----0-0-----0-0----------------------  
----------------------------------------------------------------  
----------------------------------------------------------------  

----3--3----3--3----3-3-----------------------------------------  
----4--4----4--4----4-4--------------3--3----3--3-----3--3------  
----3--3----3--3----2-2--------------2--2----2--2-----0--2------  
-------------------------------------0--0----0--0-----0--0------  
-3-------3-------3-------3--3--2--1-------1--------1--------1---  
----------------------------------------------------------------  
                                                              
-----------------------------------------6----------6--5-5-|----  
-3--3-----1--3-----1---6-----4--6-----4-----------4----5-5-|----  
-3--0-----0--0-----0---5-----5--5-----5---------5------5-5-|-2x-  
-0--1-----1--1-----1---5-----5--5-----5-------5--------4-4-|----  
-------0--------0---------0--------0--------0--------------|----  
-----------------------------------------------------------|----  

--------------10-------8---------6-------4----------------------  
--------------11-------9---------7-------5----------------------  
--------------11-------9---------7-------5----------------------  
-0-0-0-0---0------0-0-----0-0-0-----0-0-----0-0-0-0-------------  
----------------------------------------------------------------  
----------------------------------------------------------------  

----7-------5---------7-------5---------------------------------  
----4-------4---------4-------4---------------------------------  
----5-------5---------5-------5---------------------------------  
-0-----0-0-----0-0-0-----0-0------0--0--0--0--------------------  
----------------------------------------------------------------  
----------------------------------------------------------------  

----5-------3---------5-------3----4/5---3------------0-3--2-2--  
----3-------3---------2-------2----2/3---1----------1------1-1--  
----4-------4---------3-------3----3/4---0--------0--------2-2--  
-0-----0-0-----0-0-0-----0-0-------0-----2------2----------0-0--  
----------------------------------------------0-----------------  
--------------------------------------------0-------------------  

Tema Primeira vez  

----------------------------------------------------------------  
--------3-3---------3--------------3-3------3-----3-------------  
--------4-4---------4--------------4-4------4-----4-------------  
-0-2---------2-0-2-----0---2--3-----------3----2-----2----------  
----------------------------------------------------------------  
------3------3-3-3-------3-------4-----4-------4-------4--------  

----------------------------------------------------------------  
-------5-5---------5--------------5-5-------5----5--------------  
-------5-5---------5--------------6-6-------6----6--------------  
-2-2--------4-2-4-----2---4--5------------5---4-----4-----------  
-----0----------0-------0---------------------------------------  
------------0-0-----------------6------6------6--------6--------  

----------------------------------------------------------------  
--------5-5-------5------------5-5-5--3--3------3---3----3--3---  
--------7-7-------6------------5-5-5--5--5------5---4----4--4---  
-4--7---7-7--5-4----4----2-4---5-5-5--4----4----4---4----4--4---  
-----------------------------0--------0-------0-----------------  
------7---7--7-6------6----------0--------------------3-----3---  

----------------------------0-----0-------0-0-0--0--------------  
--------------------------0-------3-------1-1-1--1-------0------  
------------------------2------1--1-------4-4-4--4-2p0---2------  
-2--4--2-------0------0--------------------------------2-1------  
----------2-3-------2------------------0-------------------0----  
-3--3-------------1------------0-----0--------------------------  

---------------------------------------------------------10/----  
--------------------------0--2---------5---------5--3----11/----  
---------2----------0--2-----4--4--2-----------5----5----11/----  
---------1----------0--------5---------------5------4-----------  
---------3----------2--------0-------------0--------0-----------  
-4-3-2-1----3p1--0----------------------------------------------  

----------------------------------------------------------------  
----------3-----------------------------------------------------  
----------4-----------------------------------------------------  
-0--2-----2-----------------------------------------------------  
----------------------------------------------------------------  
-------3--------------------------------------------------------  

Tema Segunda vez  

----------------------------------------------------------------  
--------3-3---------3--------------3-3------3-----3-------------  
--------4-4---------4--------------4-4------4-----4-------------  
-0-2---------2-0-2-----0---2--3-----------3----2-----2----------  
----------------------------------------------------------------  
------3------3-3-3-------3-------4-----4-------4-------4--------  

----------------------------------------------------------------  
-------5-5---------5--------------5-5-------5----5--------------  
-------5-5---------5--------------6-6-------6----6--------------  
-2-2--------4-2-4-----2---4--5------------5---4-----4-----------  
-----0----------0-------0---------------------------------------  
------------0-0-----------------6------6------6--------6--------  

----------------------------------------------------------------  
--------5-5-------5------------5-5-5--3--3------3---3----3--3---  
--------7-7-------6------------5-5-5--5--5------5---4----4--4---  
-4--7---7-7--5-4----4----2-4---5-5-5--4----4----4---4----4--4---  
-----------------------------0--------0-------0-----------------  
------7---7--7-6------6----------0--------------------3-----3---  

----------------------------0-----0-----------------------------  
--------------------------0-------3--------3-3-3--3/2--1--------  
------------------------2------1--1--------4-4-4--4/3--2--------  
-2--4--2-------0------0--------------------2-2-2--2/1--0--------  
----------2-3-------2------------------0------------------------  
-3--3-------------1------------0-----0--------------------------  

------3--3-3--3--1----------------------------------------------  
------4--4-4--4--3--------7--7-7---7--5-7-----5---8-----5-8--5--  
------2--2-2--2--2--------7--7-7---6--6-6-----6---5-----5-5--5--  
--------------------------5--5-5---5--5-5-----5---5-----5-5--5--  
-----------------------------------------------------0----0-----  
-5/1-----1----1--1---1/7-----7-----6-------6--------------------  

Final  

---5-----3-------5-----3-----------7-----5-------7-----5--------  
---3-----5-------7-----5-----------8-----7-------8-----7--------  
---4-----4-------4-----4-----------5-----5-------5-----5--------  
-0---0-0---0-0-0---0-0---0-0-0-0-0---0-0---0-0-0---0-0---0-0-0-0  
----------------------------------------------------------------  
----------------------------------------------------------------  

---5-----3-------5-----3-----------7----------------7-----------  
---7-----5-------7-----5-----------8----------------7----------0  
---4-----4-------4-----4-----------5-------------5-----------2--  
-0---0-0---0-0-0---0-0---0-0-0-0-0---0---------------------3----  
-----------------------------------------------6---------5------  
----------------------------------------6p5-4----------3--------  

---------------------------------------------------------------  
---5---5----------------------2-2-2-2--2--2---2-2-2-2--2--2-2-2  
-6---6------------------------2-2-2-2--2--2---2-2-2-2--2--2-2-2  
------------------------------3-3-3-3--3--3---3-3-3-3--3--3-3-3  
---------------------------------------------------------------  
----------3-3-3--3-3-3-3--3---3-3-3-3--3--3---3-3-3-3--3--3-3-3  

----------------------------------------------------------------  
-2-2-2-2--2-2-2-2--2-2-2-2--2-2-2-2--2-2-2-2--2-2-2-2--2-2-2-2--  
-2-2-2-2--2-2-2-2--2-2-2-2--2-2-2-2--2-2-2-2--2-2-2-2--2-2-2-2--  
-3-3-3-3--3-3-3-3--3-3-3-3--3-3-3-3--3-3-3-3--3-3-3-3--3-3-3-3--  
----------------------------------------------------------------  
-3-3-3-3--3-3-3-3--3-3-3-3--3-3-3-3--3-3-3-3--3-3-3-3--3-3-3-3--  

----------------------------------------------------------------  
-2-2-2-2--2-2-2-2--2-2-2-2---2----------------------------------  
-2-2-2-2--2-2-2-2--2-2-2-2---2----------------------------------  
-3-3-3-3--3-3-3-3--3-3-3-3---3----------------------------------  
----------------------------------------------------------------  
-3-3-3-3--3-3-3-3--3-3-3-3---3---------------------------------- 

    	
fixar
fixar inscrever-se

enviado porenviado por: iagovillareal
cifra enviadaCorrigida por: iagovillareal
logo top cifrasComente
ico música do artistaMúsicas deste artista
ico curtiuCurtiu?
ico destaqueDestaque
Petaxxon Comunicação Online

Cifras.com.br - Melhor e mais completo site de cifras e tablaturas do Brasil Mais de 1 milhão de acordes de músicas cadastradas desde 2003
As informações contidas no nosso site são colaborações de seus usuários e podem conter erros, sendo assim, não nos responsabilizamos sobre nenhuma destas.

close
menos
mais
close
Cor dos acordes:

Cor da letra:

close
Alinhar acordes a direita Alinhar acordes a esquerda Alinhar acordes em baixo Alinhar acordes no topo
close
  Mostrar todos os acordes Esconder acordes muito fáceis Esconder acordes fáceis Esconder acordes intermediários
redimensionar
glossário