Cifras e Tablaturas
Gary Moore

Gary Moore

Cut It Out Tablatura Verificada

Ano: 2006
Compositor : (Gary Moore)

Cifras Cancelar Versão de Impressão
cifras

Gary Moore - Cut It Out

fixar na tela  
Exibindo: vídeo-aula ver clipes redimensionar
  
 1ª Parte  


 e|-----5--5-5-5-5--------------5--5-5-5-5-----------------|  
 B|-----5--5-5-5-5--------------5--5-5-5-5-----------------|  
 G|--------------------------------------------------------|  
 D|---4----------------3-5p3-5-------------------3-5p3-5---|  
 A|-\-------------xx-5----------------------xx-5-----------|  
 E|-\------------------------------------------------------|  



 e|-5--5-5-5-5---------------------------------------------|  
 B|-5--5-5-5-5---------------------------------------------|  
 G|-----------------3-5p3-5-----3-5b7-5b7--7r5p3---3-5-----|  
 D|------------xx-5----------/5------------------5-----3h5-|  
 A|--------------------------------------------------------|  
 E|--------------------------------------------------------|  



 e|--------------------------------------------------------|  
 B|--------------------------------------------------------|  
 G|----3-5b7-5b7--7r5p3---3-5-------------3-5b7-5b7--7r5p3-|  
 D|-/5------------------5-----3h5-xxxx-/5------------------|  
 A|--------------------------------------------------------|  
 E|--------------------------------------------------------|  



 e|--------------------------------------------------------|  
 B|---3-5--------------11-13b15-13b15--15r13p11----11-13---|  
 G|---3-5-----3----/12--------------------------12---------|  
 D|-5-----3h5---5------------------------------------------|  
 A|--------------------------------------------------------|  
 E|--------------------------------------------------------|  



 e|--------------------------------------------------------|  
 B|---------------------11-13b15-13b15--15r13p11----11-13--|  
 G|-10h12--12\------/12--------------------------12--------|  
 D|------------xxxx----------------------------------------|  
 A|--------------------------------------------------------|  
 E|--------------------------------------------------------|  



 e|--------------------------------------------------------|  
 B|---------------------11-13b15-13b15--15r13p11----11-13--|  
 G|-10h12--12\------/12--------------------------12--------|  
 D|------------xxxx----------------------------------------|  
 A|--------------------------------------------------------|  
 E|--------------------------------------------------------|  



 e|------------------------3-----------------------3-------|  
 B|------------11----------3-----------------------3-------|  
 G|-10h12--12-----12--12\----5b7-7r5p3---3-----------------|  
 D|------------------------------------5---5---3-5---------|  
 A|------------------------------------------5-------------|  
 E|--------------------------------------------------------|  



 e|---------------------3----------------------------------|  
 B|---------------------3----------------------------------|  
 G|-5b7-7r5p3---3---------5b7-7r5p3---3--------------------|  
 D|-----------5---5---3-------------5---5---3-5------------|  
 A|-----------------5---------------------5----------------|  
 E|---------------------------------------------3----------|  



 e|--------------------------------------------------------  
 B|--------------------------------------------------------  
 G|----3-5b7-5b7--7r5p3---3-5-----3b----------3-5b7-5b7----  
 D|-/5------------------5-----3h5----xxxx-/5---------------  
 A|--------------------------------------------------------  
 E|--------------------------------------------------------  



 e|--------------------------------------------------------|  
 B|--------------------------------------------------------|  
 G|-7r5p3---3-5---------------------------3-5b7-5b7-7r5p3--|  
 D|-------5-----3h5--5p3----------xxxx-/5-----------------5|  
 A|----------------------5\3-1b----------------------------|  
 E|-----------------------------3--------------------------|  




 e|--------------------------------------------------------|  
 B|-3-5----------------------------------------------------|  
 G|-3-5----------------------------------------------------|  
 D|-----3h5------------------------------------------------|  
 A|--------------------------------------------------------|  
 E|--------------------------------------------------------|  






 2ª Parte  





 e|--------------------------------------------------------|  
 B|----13b15r-(tr)-13-11b-------------11-------------------|  
 G|-----------------------12-12-10-12----12-10\------------|  
 D|--------------------------------------------------------|  
 A|--------------------------------------------------------|  
 E|--------------------------------------------------------|  



 e|--------------------------------------------------------|  
 B|-6b8--3h5p3---3------------------3b5--------------------|  
 G|------------5---3h5p3---3--------------3b5--------------|  
 D|----------------------5---5p3-5--------------3h5--------|  
 A|--------------------------------------------------------|  
 E|--------------------------------------------------------|  



 e|--------------------------------------------3-----------|  
 B|------------------------------------------3---6p3-5p3---|  
 G|----------------------------------3-x-5b7------------5p3|  
 D|----------------------------3-x-5-----------------------|  
 A|-5\3-1-3p1-------1-xx-3/5-x-----------------------------|  
 E|-----------3-1-3----------------------------------------|  



 e|--------------------------------------------------------|  
 B|--------------------------------------------------------|  
 G|-----3b5r-(tr)-3b---------3-----------------------------|  
 D|-5-3--------------5-5-3-5---5p3-------------------------|  
 A|--------------------------------5\3-1b---1b/-\----------|  
 E|---------------------------------------3----------------|  



 e|--10-x-9-x-8-x-6b-----------10-x-9-x-8-x-6b-------------|  
 B|------------------8-------------------------8-----------|  
 G|--------------------7-7-----------------------7-7-------|  
 D|--------------------------------------------------------|  
 A|--------------------------------------------------------|  
 E|--------------------------------------------------------|  



 e|--10-x-9-x-8-x-6b-----------10-x-9-x-8-x-6b-------------|  
 B|------------------8-------------------------8-8p6-6h8---|  
 G|--------------------7-7---------------------------------|  
 D|--------------------------------------------------------|  
 A|--------------------------------------------------------|  
 E|--------------------------------------------------------|  



 e|--------------------------------------------------------|  
 B|-4----8------11-----------11---------------11-13-13-----|  
 G|-6b8--10b12--10b12--12-10----12-12-----/12--------------|  
 D|--------------------------------------------------------|  
 A|--------------------------------------------------------|  
 E|--------------------------------------------------------|  



 e|--------------------------------------------------------|  
 B|-13b15-13-11-13--13b15-13-11-13--13b15-13-11-13b15-11b--|  
 G|--------------------------------------------------------|  
 D|--------------------------------------------------------|  
 A|--------------------------------------------------------|  
 E|--------------------------------------------------------|  



 e|---------------------------------------3----------------|  
 B|----------------11-------11------------3----------------|  
 G|-12-10-12-12-12----12-12----12-12--12\---5b7-7r5p3---3--|  
 D|---------------------------------------------------5----|  
 A|--------------------------------------------------------|  
 E|--------------------------------------------------------|  




 e|---------3---------------------3------------------------|  
 B|---------3---------------------3------------------------|  
 G|-5---3-5---5b7-7r5p3---3---------5b7-7r5p3---3----------|  
 D|---5-----------------5---5---3-------------5---5---3-5--|  
 A|---------------------------5---------------------5------|  
 E|-------------------------------------------------------3|  



 e|--------------------------------------------------------|  
 B|--------------------------------------------------------|  
 G|------3-5b7-5b7-r5p3---3-5-------3------3-5b7-5b7-r5p3--|  
 D|---/5----------------5-----3h5-5---5\-/5---------------5|  
 A|--------------------------------------------------------|  
 E|12\-----------------------------------------------------|  



 e|--------------------------------------------------------|  
 B|------------------------6---6---6------3-5--------------|  
 G|-3-5-------3b---------3-5b7-5b7-r5p3---3-5-------3------|  
 D|-----3h5-5---------/5----------------5-----3h5-5---5-5--|  
 A|--------------xxxx--------------------------------------|  
 E|--------------------------------------------------------|  





 3ª Parte  





 e|------------------15------------------------------------|  
 B|-----18b20-----------18-15------------------------------|  
 G|---------------------------17-17p15------------15-------|  
 D|------------------------------------17-15-17------17\---|  
 A|--------------------------------------------------------|  
 E|--------------------------------------------------------|  



 e|-------15----------------15----------15----------15-----|  
 B|-18b20----18-15-------15----------15----------15--------|  
 G|----------------17b19-------17b19-------17b19-----------|  
 D|--------------------------------------------------------|  
 A|--------------------------------------------------------|  
 E|--------------------------------------------------------|  



 e|----------15-18b20--18--15-18p15-15--18p15--------------|  
 B|-------15----------------------------------18-15-18-15--|  
 G|-17b19--------------------------------------------------|  
 D|--------------------------------------------------------|  
 A|--------------------------------------------------------|  
 E|--------------------------------------------------------|  



 e|-18p15-------------18p15--------------------------------|  
 B|-------18-15-18-15-------18-15-18-15--------------------|  
 G|-------------------------------------17-15--------------|  
 D|-------------------------------------------17--15\------|  
 A|--------------------------------------------------------|  
 E|--------------------------------------------------------|  



 e|--------------------------------------------------------|  
 B|--------------------------------------------------------|  
 G|-----15-17-17b19r-(tr)-17-15b-------15-------15---------|  
 D|-/17--------------------------17-17----17-17----17-17-17|  
 A|--------------------------------------------------------|  
 E|--------------------------------------------------------|  



 e|--------------------------------------------------------|  
 B|--------------------------------------------------------|  
 G|-12-10----------10-12-(4x)----12-10----------10-12-(7x)-|  
 D|-------12-10-12---------------------12-10-12------------|  
 A|--------------------------------------------------------|  
 E|--------------------------------------------------------|  




 e|--------------------------------------------------------|  
 B|----------------------10-13p10-13p10-13b15-15-15-15-15r-|  
 G|-12-10----------10-12-----------------------------------|  
 D|-------12-10-12-----------------------------------------|  
 A|--------------------------------------------------------|  
 E|--------------------------------------------------------|  



 e|----------------------------------17--------17b19-------|  
 B|-15b17r15b17r15b17r15b17r15--17b19--19r17\--------------|  
 G|--------------------------------------------------------|  
 D|--------------------------------------------------------|  
 A|--------------------------------------------------------|  
 E|--------------------------------------------------------|  



 e|15------------------------------------------------------|  
 B|---18-15-------------15-18-15-18-18b20-18b20-15-18-15-15|  
 G|---------17b-15---15\-----------------------------------|  
 D|----------------17--------------------------------------|  
 A|--------------------------------------------------------|  
 E|--------------------------------------------------------|  




 e|-18b20-18-15-18b19-18b19-15-15-15-18p15-15-18b20--------|  
 B|------------------------------------------------b20\----|  
 G|--------------------------------------------------------|  
 D|--------------------------------------------------------|  
 A|--------------------------------------------------------|  
 E|--------------------------------------------------------|  



 e|20b22-20b22-20b22-20b22-22r20\-(2x)-20b22-(9x)-18b20(2x)|  
 B|--------------------------------------------------------|  
 G|--------------------------------------------------------|  
 D|--------------------------------------------------------|  
 A|--------------------------------------------------------|  
 E|--------------------------------------------------------|  



 e|-15-15----15-18-15-------18p15p13-(8x)-----18b20--------|  
 B|-------18-----------------------------------------------|  
 G|--------------------------------------------------------|  
 D|--------------------------------------------------------|  
 A|--------------------------------------------------------|  
 E|--------------------------------------------------------|  




 e|-15---------------------------15-------15-------15------|  
 B|---15----------------15-18b20----18b20----18b20----18b20|  
 G|-----15b----------15------------------------------------|  
 D|---------17-15-17---------------------------------------|  
 A|--------------------------------------------------------|  
 E|--------------------------------------------------------|  



 e|-15-------15-------15-------15-------15-18b20-18b-------|  
 B|----18b20----18b20----18b20----18b20--------------------|  
 G|--------------------------------------------------------|  
 D|--------------------------------------------------------|  
 A|--------------------------------------------------------|  
 E|--------------------------------------------------------|  



 e|--15----------------------------------------------------|  
 B|-----18-15-------------------------------18-------------|  
 G|-----------17-15b-----------15----15-----17b19----------|  
 D|------------------17-15-17-----17----17-----------------|  
 A|--------------------------------------------------------|  
 E|--------------------------------------------------------|  






 4ª Parte  





 e|--------------------------------------------------------|  
 B|--------------------------------------------------------|  
 G|----3-5b7-5b7-7r5p3---3-5-------------------------------|  
 D|-/5-----------------5-----(0h3p0)-8x--(0h2p0)-6x--3h5---|  
 A|--------------------------------------------------------|  
 E|--------------------------------------------------------|  



 e|--------------------------------------------------------|  
 B|--------------------------------------------------------|  
 G|----3-5b7-5b7-7r5p3---3-5-------------------------------|  
 D|-/5-----------------5-----------(xx-5-x-5)-5x-----------|  
 A|--------------------------------------------------------|  
 E|--------------------------------------------------------|  




 e|--------------------------------------------------------|  
 B|----------------------3-5-------------------------------|  
 G|----3-5b7-5b7-7r5p3---3-5-------------------------------|  
 D|-/5-----------------5---------5p3---5-----5p3---3-5-----|  
 A|----------------------------------------------5---------|  
 E|--------------------------3-3-----3---3-3---------------|  



 e|--------------------------------------------------------|  
 B|------------------11-13b15-13b15-15r13p11----11-13\-----|  
 G|--------------/12-------------------------12------------|  
 D|-----5p3---3--------------------------------------------|  
 A|--------------------------------------------------------|  
 E|-3-3-----3----------------------------------------------|  



 e|--------------------------------------------------------|  
 B|----12p10---12----12p10---12----12p10h12p10-12\---------|  
 G|----12p10---12----12p10---12----12p10h12p10-12\---------|  
 D|-xx-------x----xx-------x----xx-------------------------|  
 A|--------------------------------------------------------|  
 E|--------------------------------------------------------|  



 e|--------------------13----------------------------------|  
 B|-----11-13b15-13b15----15r13p11----11-13----------------|  
 G|-/12----------------------------12----------------------|  
 D|--------------------------------------------------------|  
 A|--------------------------------------------------------|  
 E|--------------------------------------------------------|  



 e|--------------------------------------------------------|  
 B|----12p10---12----12p10---12----------12p10-12-10\------|  
 G|----12p10---12----12p10---12-10-------12p10-12-10\------|  
 D|-xx-------x----xx-------x-------12-10-------------------|  
 A|--------------------------------------------------------|  
 E|--------------------------------------------------------|  




 e|--------------------------------------------------------|  
 B|--------11-13b15-13b15-15r13p11----11-13----------------|  
 G|----/12-------------------------12----------------------|  
 D|--------------------------------------------------------|  
 A|--------------------------------------------------------|  
 E|--------------------------------------------------------|  




 e|------3-------------------------------------------------|  
 B|--6b8---6-----------------------------------------------|  
 G|----------6\5-3-5p3---3---------------------------------|  
 D|--------------------5-----------------------------------|  
 A|-----------------------------5--------------------------|  
 E|-------------------------1-2-3--------------------------|  

  

top 5 | gary moore
top
Outras músicas do artista letras do(a) Gary Moore
Top cifras »Top artistas »
Petaxxon Comunicação Online
Cifras.com.br - Melhor e mais completo site de cifras e tablaturas do Brasil
Mais de 1 milhão de acordes de músicas cadastradas desde 2003
As informações contidas no nosso site são colaborações de seus usuários e podem conter erros, sendo assim, não nos responsabilizamos sobre nenhuma destas.
close
menos
mais
close
Cor dos acordes:

Cor da letra:

 

save
close
close
 
redimensionar