Gary Stewart

Gary Stewart

An Empty Glass
Composição de (Dean Dillon/Gary Stewart)
This is the steel part for guitar. I'll tab it for 2 guitars but 
you can play it on one. 
Play these over the G and Em chords throughout the song. 
 
guitar 1: 
  G               Em 
e------------------------------ 
b-12-10-------------12-10------ 
g-12-11-11-7--------12-11-11-7- 
d-------12-9--------------12-9- 
a-----------/10-9-7------------ 
e------------------------------ 
 
guitar 2: 
  G           Em 
e-3-2-----------3-2----- 
b-----3-0-----------3-0- 
g----------------------- 
d----------------------- 
a----------------------- 
e---------3-2-0---------

Enviado por: anônimo

Corrigido por: sem correções