Cifras e Tablaturas
Ghost Town

Ghost Town

Monster

Cifras Cancelar Versão de Impressão

Ghost Town - Monster

Tom: C

  			

Tuning: Drop C (C G C F A D) 

Intro: 
D|---------------------------------------------------------------------------| 
A|---------------------------------------------------------------------------| 
F|---------------------------------------------------------------------------| 
C|----------------5-7-5------------------------------------------------------| 
G|-------5/8--5---------8-7-8-4--------5/8--5--3-3-3-3/4-4-4-----------------| 
C|--0-3---------------------------0-3----------------------------------------| x2 

verse 1: 
D|---------------------------------------------------------------------------| 
A|---------------------------------------------------------------------------| 
F|---------------------------------------------------------------------------| 
C|---------------------------------------------------------------------------| 
G|---------------------------------------------------------------------------| 
C|--0-0-0-0-0-0-0-0-0-0-0-0-0-0-0-0-8-8-8-8-8-8-8-8-7-7-7-7-7-7-7-7----------| 

D|---------------------------------------------------------------------------| 
A|---------------------------------------------------------------------------| 
F|---------------------------------------------------------------------------| 
C|---------------------------------------------------------------------------| 
G|---------------------------------------------------------------------------| 
C|--0-0-0-0-0-0-0-0-0-0-0-0-0-0-0-0-3-3-3-3-3-3-3-3-8-8-8-8-7-7-7-7----------| 

D|---------------------------------------------------------------------------| 
A|---------------------------------------------------------------------------| 
F|---------------------------------------------------------------------------| 
C|-------------5-7-5-----------------5/7-5-7-5-------------------------------| 
G|------5/8-5---------8-7-8-4-----4------------8-7-5-4-5---------------------| 
C|-0-3-------------------------2---------------------------------------------| 

D|-------------------------------| 
A|-------------------------------| 
F|-------------------------------| 
C|-------------5-7-5-------------| 
G|------5/8-5---------8-7-8-4----| 
C|-0-3---------------------------| 

Chorus: 
D|-----------------------------------------------| 
A|-----------------------------------------------| 
F|-----------------------------------------------| 
C|--0------3-8-----10-5-----7-8-----10-----------| 
G|--0------3-8-----10-5-----7-8-----10-----------| 
C|--0------3-8-----10-5-----7-8-----10-----------| 

D|-----------------------------------------------| 
A|-----------------------------------------------| 
F|-----------------------------------------------| 
C|--0-----3-8-----10-0-----10-8-----10-----------| 
G|--0-----3-8-----10-0-----10-8-----10-----------| 
C|--0-----3-8-----10-0-----10-8-----10-----------| 

verse 2: 
D|------------------------------------------------------------------------------| 
A|------------------------------------------------------------------------------| 
F|------------------------------------------------------------------------------| 
C|--------------------5/7-------------------------------------------------------| 
G|------5/8--------4-------------5/8----4-5-5/7---------------------------------| 
C|-0--3---------2-----------0--3------------------------------------------------| x2 

D|----------| 
A|----------| 
F|----------| 
C|--0-------| 
G|--0-------| 
C|--0-------| 

Chorus: 
D|-----------------------------------------------| 
A|-----------------------------------------------| 
F|-----------------------------------------------| 
C|--0------3-8-----10-5-----7-8-----10-----------| 
G|--0------3-8-----10-5-----7-8-----10-----------| 
C|--0------3-8-----10-5-----7-8-----10-----------| 

D|------------------------------------------------------| 
A|------------------------------------------------------| 
F|------------------------------------------------------| 
C|--0-----3-8-----10------------------------------------| 
G|--0-----3-8-----10------------------------------------| 
C|--0-----3-8-----10----8-8-8-3-3-3-7-7-7-2-2-2-2-2-2---| 

Bridge: 
D|---------------------------------------------------------| 
A|---------------------------------------------------------| 
F|---------------------------------------------------------| 
C|---0-0-0-0-----------0-0-0-0-----------------------------| 
G|---0-0-0-0-----------0-0-0-0-----------------------------| 
C|---0-0-0-0-----------0-0-0-0--------2---2--3-------------| 

D|---------------------------------------------------------| 
A|---------------------------------------------------------| 
F|---------------------------------------------------------| 
C|---0-0-0-0-----------0-0-0-0-----------------0----0------| 
G|---0-0-0-0-----------0-0-0-0-----------------0----0------| 
C|---0-0-0-0-----------0-0-0-0-----------------0----0------| 

INTERLUDE:  

- Instrumental BREAK - 

D|---------------------------------------------------------------------------| 
A|---------------------------------------------------------------------------| 
F|---------------------------------------------------------------------------| 
C|--------------5-7-5--------------------------------------------------------| 
G|------5/8--5--------8-7-8-4--------5/8--5---3-3-3-3/4-4-4------------------| 
C|--0-3-------------------------0-3------------------------------------------| x2 

Chorus: 
D|-----------------------------------------------| 
A|-----------------------------------------------| 
F|-----------------------------------------------| 
C|--0------3-8-----10-5-----7-8-----10-----------| 
G|--0------3-8-----10-5-----7-8-----10-----------| 
C|--0------3-8-----10-5-----7-8-----10-----------| 

D|-----------------------------------------------| 
A|-----------------------------------------------| 
F|-----------------------------------------------| 
C|--0-----3-8-----10-0-----10-8-----10-----------| 
G|--0-----3-8-----10-0-----10-8-----10-----------| 
C|--0-----3-8-----10-0-----10-8-----10-----------| x2 

************************************ 

| /   slide up 
| \   slide down 
| h   hammer-on 
| p   pull-off 
| ~   vibrato 
| +   harmonic 
| x   Mute note 
| b   Bend 
| pb  Pre-bend 
| br  Bend release 
| pbr Pre-bend release 
| brb Bend release bend 

************************************ 
    	
fixar
fixar inscrever-se

enviado porenviado por: fernsantana
cifra enviadaCorrigida por: sem correções
logo top cifrasComente
ico música do artistaMúsicas deste artista
ico curtiuCurtiu?
ico destaqueDestaque
Petaxxon Comunicação Online

Cifras.com.br - Melhor e mais completo site de cifras e tablaturas do Brasil Mais de 1 milhão de acordes de músicas cadastradas desde 2003
As informações contidas no nosso site são colaborações de seus usuários e podem conter erros, sendo assim, não nos responsabilizamos sobre nenhuma destas.

close
menos
mais
close
Cor dos acordes:

Cor da letra:

close
Alinhar acordes a direita Alinhar acordes a esquerda Alinhar acordes em baixo Alinhar acordes no topo
close
  Mostrar todos os acordes Esconder acordes muito fáceis Esconder acordes fáceis Esconder acordes intermediários
redimensionar
glossário