Cifras e Tablaturas
Ghost Town

Ghost Town

Universe

Cifras Cancelar Versão de Impressão
cifras

Ghost Town - Universe

fixar na tela  
Exibindo: vídeo-aula ver clipes redimensionar

Tom:

  
Tuning: CGCFAD 

Verse 

D|-------------------| 
A|-------------------| 
F|--------------~~~--| 
C|-0~~~3~~~8~~~7~~~--| 
G|-0~~~3~~~8~~~7~~~--| x2 
C|-0~~~3~~~8~~~7~~~--| 

D|-----------------------------------------------| 
A|-----------------------------------------------| 
F|-----------------------------------------------| 
C|--0-0--8-8-7-7-0-0--0-2-3-8-8--8-8-7-7-0-3-12--| 
G|--0-0--8-8-7-7-0-0--0-2-3-8-8--8-8-7-7-0-3-12--| 
C|--0-0--8-8-7-7-0-0--0-2-3-8-8--8-8-7-7-0-3-12--| 

D|-----------------------------------------------| 
A|-----------------------------------------------| 
F|-----------------------------------------------| 
C|--8-8--8-8-7-7-0-0--0-2-3-8-8--8-8-7-7-0-3-12--| 
G|--8-8--8-8-7-7-0-0--0-2-3-8-8--8-8-7-7-0-3-12--| 
C|--8-8--8-8-7-7-0-0--0-2-3-8-8--8-8-7-7-0-3-12--| 


Chorus 

D|------------------------------------------------------------------| 
A|------------------------------------------------------------------| 
F|-7-7-7-7-7-7-7-7-7-7-7-7-7-7-7-7-6-6-6-6-6-6-6-6-6-6-6-6-6-6-6-6--| 
C|-7-7-7-7-7-7-7-7-7-7-7-7-7-7-7-7-6-6-6-6-6-6-6-6-6-6-6-6-6-6-6-6--| 
G|-5-5-5-5-5-5-5-5-5-5-5-5-5-5-5-5-4-4-4-4-4-4-4-4-4-4-4-4-4-4-4-4--| 
C|------------------------------------------------------------------| 

                                                                          x2 
D|-------------------------------------------------------------------| 
A|-------------------------------------------------------------------| 
F|-------------------------------------------------------------------| 
C|--8-8-8-8-8-8-8-8-8-8-8-8-8-8-8-8-7-7-7-7-7-7-7-7-7-7-7-7-7-7-7-7--| 
G|--8-8-8-8-8-8-8-8-8-8-8-8-8-8-8-8-7-7-7-7-7-7-7-7-7-7-7-7-7-7-7-7--| 
C|--8-8-8-8-8-8-8-8-8-8-8-8-8-8-8-8-7-7-7-7-7-7-7-7-7-7-7-7-7-7-7-7--| 

Interlude 

D|--------------------------------------------| 
A|--------------------------------------------| 
F|--------------------------------------------| 
C|--12--12-10-8-7--7-5-3-7--7-5-3-0--0-0-0-0--| 
G|--12--12-10-8-7--7-5-3-7--7-5-3-0--0-0-0-0--| 
C|--12--12-10-8-7--7-5-3-7--7-5-3-0--0-0-0-0--| 


verse 2 

D|-----------------------------------------| 
A|-----------------------------------------| 
F|-----------------------------------------| 
C|-0~~-3~~-8~~-7~~0-2-3--0~~-3~~-8~~-7~~~--| 
G|-0~~-3~~-8~~-7~~0-2-3--0~~-3~~-8~~-7~~~--| 
C|-0~~-3~~-8~~-7~~0-2-3--0~~-3~~-8~~-7~~~--| 

D|---------------------------------------------------------------------| 
A|---------------------------------------------------------------------| 
F|---------------------------------------------------------------------| 
C|-0-------------------------------------------------------------------| 
G|-0--12-12-12-12-12-10-8-7-12-12-10-8-7-12-12-10-8-7-5-5--5--5-5-5-5--| 
C|-0-------------------------------------------------------------------| 

D|-----------------------------------------------| 
A|-----------------------------------------------| 
F|-----------------------------------------------| 
C|--8-8--8-8-7-7-0-0--0-2-3-8-8--8-8-7-7-0-3-12--| 
G|--8-8--8-8-7-7-0-0--0-2-3-8-8--8-8-7-7-0-3-12--| 
C|--8-8--8-8-7-7-0-0--0-2-3-8-8--8-8-7-7-0-3-12--| 

Chorus 2 

D|------------------------------------------------------------------| 
A|------------------------------------------------------------------| 
F|-7-7-7-7-7-7-7-7-7-7-7-7-7-7-7-7-6-6-6-6-6-6-6-6-6-6-6-6-6-6-6-6--| 
C|-7-7-7-7-7-7-7-7-7-7-7-7-7-7-7-7-6-6-6-6-6-6-6-6-6-6-6-6-6-6-6-6--| 
G|-5-5-5-5-5-5-5-5-5-5-5-5-5-5-5-5-4-4-4-4-4-4-4-4-4-4-4-4-4-4-4-4--| 
C|------------------------------------------------------------------| 

                                                                          x2 
D|-------------------------------------------------------------------| 
A|-------------------------------------------------------------------| 
F|-------------------------------------------------------------------| 
C|--8-8-8-8-8-8-8-8-8-8-8-8-8-8-8-8-7-7-7-7-7-7-7-7-7-7-7-7-7-7-7-7--| 
G|--8-8-8-8-8-8-8-8-8-8-8-8-8-8-8-8-7-7-7-7-7-7-7-7-7-7-7-7-7-7-7-7--| 
C|--8-8-8-8-8-8-8-8-8-8-8-8-8-8-8-8-7-7-7-7-7-7-7-7-7-7-7-7-7-7-7-7--| 

Interlude 2 

D|----------------------------------------------| 
A|--------------------3--1----------------------| 
F|---------------------------3------------------| 
C|------------------------------7~~~~~7-5-------| 
G|----------------------------------------7-8---| 
C|-0---3---8---7---0~~~~~3~~~~~~8~~~~~5~~~7~~~--| 

Dubstep part 

D|-------------------------------------------------------------------| 
A|-------------------------------------------------------------------| 
F|-------------------------------------------------------------------| 
C|-0~~~3~~~8-8-8-8-8-8-8-8--10-10-10-10--12-12-12-12---0~~~3~~~2~~~--| 
G|-0~~~3~~~8-8-8-8-8-8-8-8--10-10-10-10--12-12-12-12---0~~~3~~~2~~~--| 
C|-0~~~3~~~8-8-8-8-8-8-8-8--10-10-10-10--12-12-12-12---0~~~3~~~2~~~--| 

D|--------------------------| 
A|--------------------------| 
F|--------------------------| 
C|--0--0--3--3--8--8--7--7--| 
G|--0--0--3--3--8--8--7--7--| 
C|--0--0--3--3--8--8--7--7--| 

I'm not in this universe... 
D|------------------| 
A|------------------| 
F|------------------| 
C|--8~~~10~~~0~~~3--| 
G|--8~~~10~~~0~~~3--| x2 
C|--8~~~10~~~0~~~3--| 

D|-----------------------------------------------------------------------| 
A|-----------------------------------------------------------------------| 
F|-----------------------------------------------------------------------| 
C|--8-8-8-8-8-8-8-8-8-8-8-8-10-10-10-10-0-0-0-0-0-0-0-0-0-0-0-0-3-3-3-3--| 
G|--8-8-8-8-8-8-8-8-8-8-8-8-10-10-10-10-0-0-0-0-0-0-0-0-0-0-0-0-3-3-3-3--| x2 
C|--8-8-8-8-8-8-8-8-8-8-8-8-10-10-10-10-0-0-0-0-0-0-0-0-0-0-0-0-3-3-3-3--| 

Chorus 3 

D|------------------------------------------------------------------| 
A|------------------------------------------------------------------| 
F|-7-7-7-7-7-7-7-7-7-7-7-7-7-7-7-7-6-6-6-6-6-6-6-6-6-6-6-6-6-6-6-6--| 
C|-7-7-7-7-7-7-7-7-7-7-7-7-7-7-7-7-6-6-6-6-6-6-6-6-6-6-6-6-6-6-6-6--| 
G|-5-5-5-5-5-5-5-5-5-5-5-5-5-5-5-5-4-4-4-4-4-4-4-4-4-4-4-4-4-4-4-4--|  
C|------------------------------------------------------------------| 

                                                                          x2 
D|-------------------------------------------------------------------| 
A|-------------------------------------------------------------------| 
F|-------------------------------------------------------------------| 
C|--8-8-8-8-8-8-8-8-8-8-8-8-8-8-8-8-7-7-7-7-7-7-7-7-7-7-7-7-7-7-7-7--| 
G|--8-8-8-8-8-8-8-8-8-8-8-8-8-8-8-8-7-7-7-7-7-7-7-7-7-7-7-7-7-7-7-7--| 
C|--8-8-8-8-8-8-8-8-8-8-8-8-8-8-8-8-7-7-7-7-7-7-7-7-7-7-7-7-7-7-7-7--| 

Outro 

D|-----------------------------------| 
A|--------------------3--1-----------| 
F|---------------------------3-------| 
C|-----------------------------7~~~--| 
G|-----------------------------------| 
C|-0~~~3~~~8~~~7~~~0~~~~~3~~~~~8~~~--| 


************************************ 


| ~   Let Ring 


************************************ 
  

top 5 | ghost town
top rock alternativo
Outras músicas do artista letras do(a) Ghost Town
Top cifras »Top artistas »
Petaxxon Comunicação Online
Cifras.com.br - Melhor e mais completo site de cifras e tablaturas do Brasil
Mais de 1 milhão de acordes de músicas cadastradas desde 2003
As informações contidas no nosso site são colaborações de seus usuários e podem conter erros, sendo assim, não nos responsabilizamos sobre nenhuma destas.
close
menos
mais
close
Cor dos acordes:

Cor da letra:

 

save
close
close
 
redimensionar