Cifras e Tablaturas
Ghost

Ghost

Death Knell

Compositor : (A Ghoul Writer)

Cifras Cancelar Versão de Impressão
cifras

Ghost - Death Knell

fixar na tela  
Exibindo: vídeo-aula ver clipes redimensionar

Tom:

  
(Intro) bass plays riff twice 

Verse guitar enters at 0:21 
D|--------------------------| 
A|--------------------------| 
F|--------------------------| 
C|-----3====let=ring==------| 
G|-----1====let=ring=-------| 
D|--------------------------| 

D|---------------------------------------------------------------------------| 
A|---------------------------------------------------------------------------| 
F|---------------------------------------------------------------------------| 
C|------------------------------2--3-----------------------------------------|x7 
G|------------2---------2----------1-----------------------------------------| 
D|--------1-0-0-----1-0-0---1-0----------------------------------------------| 

(last time) 
D|---------------------------------------------------------------------------| 
A|---------------------------------------------------------------------------| 
F|---------------------------------------------------------------------------| 
C|---------------------2-----3----5------------------------------------------| 
G|-----------2---------------1----3------------------------------------------| 
D|-------1-0-0-----1-0-------------------------------------------------------| 

Chorus 
Guitar 1 
D|-----------------------------------|----------------------------------------| 
A|-----------------------------------|----------------------------------------| 
F|-----------------------------------|----------------------------------------| 
C|---4-4---4-------4--------4-----4--|---3-3---3-------3-------3-----3--------| 
G|---2-2-2-2---2-2-2----2-2-2---2-2--|---1-1-1-1---1-1-1---1-1-1---1-1--------| 
D|-----------------------------------|----------------------------------------| 

D|---------------------------------|------------------------------------------| 
A|---------------------------------|------------------------------------------| 
F|---------------------------------|------------------------------------------| 
C|---------------------------------|---6-6---6-------6-------6-----6----------| 
G|--3-3---3-------3--------3-----3-|---4-4-4-4---4-4-4---4-4-4---4-4----------| 
D|--1-1-1-1---1-1-1----1-1-1---1-1-|------------------------------------------| 

Chorus 
Guitar 2  
D|----------------------------------------|------------------------------------------------| 
A|---3----3----3---3------2---2---3---3---|----3---3---3---3-----3---3---3---3-------------| 
F|-----4----4----4---4------4---4---4---4-|-----3---3---3---3-----3---3---3---3-----------| 
C|----------------------------------------|------------------------------------------------| 
G|----------------------------------------|------------------------------------------------| 
D|----------------------------------------|------------------------------------------------| 

D|---1---1---1---1-----1---1---1---1---|--1---1---1---1----1----1---1---1-----| 
A|-----1---1---1---1-----1---1---1---1-|----2---2---2---2----2----2---2---2---| 
F|-------------------------------------|--------------------------------------| 
C|-------------------------------------|--------------------------------------| 
G|-------------------------------------|--------------------------------------| 
D|-------------------------------------|--------------------------------------| 

D|-4---4---4---4------4---4---4---4----|---4---4---4---4-----4---4---4---4----| 
A|---5---5---5---5------5---5---6---6--|-----5---5---5---5-----5---5---5---6--| 
F|-------------------------------------|--------------------------------------| 
C|-------------------------------------|--------------------------------------| 
G|-------------------------------------|--------------------------------------| 
D|-------------------------------------|--------------------------------------| 

D|-4---4---4---4----4---4---4---4---|--4---4---4---4------4---4---------------| 
A|---5---5---5---5----5---5---6---6-|----5---5---5---5------5---5-------------| 
F|----------------------------------|-----------------------------------------| 
C|----------------------------------|------------------------------3----------| 
G|----------------------------------|-----------------------------------------| 
D|----------------------------------|-----------------------------------------| 

Verse 
D|--------------------------| 
A|--------------------------| 
F|--------------------------| 
C|-----3====let=ring==------| 
G|-----1====let=ring=-------| 
D|--------------------------| 

D|---------------------------------------------------------------------------| 
A|---------------------------------------------------------------------------| 
F|---------------------------------------------------------------------------| 
C|------------------------------2--3-----------------------------------------|x7 
G|------------2---------2----------1-----------------------------------------| 
D|--------1-0-0-----1-0-0---1-0----------------------------------------------| 

(last time) 
D|---------------------------------------------------------------------------| 
A|---------------------------------------------------------------------------| 
F|---------------------------------------------------------------------------| 
C|---------------------2-----3----5------------------------------------------| 
G|-----------2---------------1----3------------------------------------------| 
D|-------1-0-0-----1-0-------------------------------------------------------| 

Chorus 
Guitar 1  
2nd time the ending is different  
D|-----------------------------------|----------------------------------------| 
A|-----------------------------------|----------------------------------------| 
F|-----------------------------------|----------------------------------------| 
C|---4-4---4-------4--------4-----4--|---3-3---3-------3-------3-----3--------| 
G|---2-2-2-2---2-2-2----2-2-2---2-2--|---1-1-1-1---1-1-1---1-1-1---1-1--------| 
D|-----------------------------------|----------------------------------------| 

D|-----------------------------------|----------------------------------------| 
A|-----------------------------------|----------------------------------------| 
F|-----------------------------------|----------------------------------------| 
C|---7-7---7-------7--------7-----7--|--3-3---3-------3-------3----3----------| 
G|---5-5-5-5---5-5-5----5-5-5---5-5--|--1-1-1-1---1-1-1---1-1-1--1-1----------| 
D|-----------------------------------|----------------------------------------| 

D|----------------------------------------|---------------------------------------| 
A|----------------------------------------|---------------------------------------| 
F|----------------------------------------|---------------------------------------| 
C|----------------------------------------|---------------------------------------| 
G|-3-3-------3----------3--------3-----3--|---2-2-----2----------2-------2---2----| 
D|-1-1-1-1---1-1-1-1----1-1-1-1--1--1--1--|---0-0-0-0-0-0-0-0----0-0-0-0-0-0-0----| 

Chorus 
Guitar 2  
D|-----------------------------------------|-----------------------------------------------| 
A|---3----3----3---3------2---2---3---3----|---3---3---3---3-----3---3---3---3-------------| 
F|-----4----4----4---4------4---4---4---4--|-----3---3---3---3-----3---3---3---3-----------| 
C|-----------------------------------------|-----------------------------------------------| 
G|-----------------------------------------|-----------------------------------------------| 
D|-----------------------------------------|-----------------------------------------------| 

D|---1---1---1---1-----1---1---1---1---|--1---1---1---1----1----1---1---1-----| 
A|-----3---3---3---3-----3---3---3---3-|----3---3---3---3----3----3---3---3---| 
F|-------------------------------------|--------------------------------------| 
C|-------------------------------------|--------------------------------------| 
G|-------------------------------------|--------------------------------------| 
D|-------------------------------------|--------------------------------------| 


D|-4---4---4---4----4---4---4---4---|-----------------------------------------| 
A|---6---6---6---6----6---6---6---6-|--5---5---5---5----5---5---5---5---------| 
F|----------------------------------|----6---6---6---6----6---6---6---6-------| 
C|----------------------------------|-----------------------------------------| 
G|----------------------------------|-----------------------------------------| 
D|----------------------------------|-----------------------------------------| 

Bridge 
D|---------------------------------------------------------------------------| 
A|---------------------------------------------------------------------------| 
F|---------------------------------------------------------------------------| 
C|---------------------------------------------------------------------------| 
G|---6-6-----6-6---------------6-6-------------------------------------------| 
D|---4-4-----4-4---6-8-5-7-----4-4---6-8-5-7---------------------------------| 

D|---------------------------------------------------------------------------| 
A|---------------------------------------------------------------------------| 
F|---------------------------------------------------------------------------| 
C|---------------------------------------------------------------------------| 
G|---6-6----6-6-----------------------------------------------------------| 
D|---4-4----4-4----8-7-12-11-6-5-10-9-------------------------------------| 

(break down) 
   P.M------------------------        P.M.----------------------------------- 
D|--------------------------------|----------------------------------------------------| 
A|--------------------------------|----------------------------------------------------| 
F|------------------------4----3--|----------------------------------------------------|x 4 
C|-----------2-------2-2-5--------|---------------2-----------4-8-7--------------------| 
G|-3-6-3-----2-------2------------|--3-----3------2-------6-6--------------------------| 
D|-1-4-1-----0---0-0-0------------|--1--1--1------0---0-0-4----------------------------| 

   P.M.---------------------------         P.M.-------------------------- 
D|-------------------------------------|--------------------------------------| 
A|-------------------------------------|--------------------------------------| 
F|-------------------------------------|--------------------------------------| 
C|-------------2-----------------------|---------------------------------3----| 
G|-3-6-3-------2-----3-3-3-----2---6---|---3-6-3-----2----3-3-3------2---1----| 
D|-1-4-1-------0-----1-1-1-----0---4---|---1-4-1-----0----1-1-1------0--------| 

verse 3 play the same as verses 1 & 2, except play the full power chords and palm mute 
D|----------------------------------------|------------------------------------------------| 
A|---3----3----3---3------2---2---3---3---|----3---3---3---3-----3---3---3---3-------------| 
F|-----4----4----4---4------4---4---4---4-|------3---3---3---3-----3---3---3---3-----------| 
C|----------------------------------------|------------------------------------------------| 
G|----------------------------------------|------------------------------------------------| 
D|----------------------------------------|------------------------------------------------| 

D|---1---1---1---1-----1---1---1---1---|--1---1---1---1----1----1---1---1-----| 
A|-----1---1---1---1-----1---1---1---1-|----2---2---2---2----2----2---2---2---| 
F|-------------------------------------|--------------------------------------| 
C|-------------------------------------|--------------------------------------| 
G|-------------------------------------|--------------------------------------| 
D|-------------------------------------|--------------------------------------| 

D|-4---4---4---4------4---4---4---4----|---4---4---4---4-----4---4---4---4----| 
A|---5---5---5---5------5---5---5---6--|-----5---5---5---5-----5---5---6---6--| 
F|-------------------------------------|--------------------------------------| 
C|-------------------------------------|--------------------------------------| 
G|-------------------------------------|--------------------------------------| 
D|-------------------------------------|--------------------------------------| 

D|-4---4---4---4------4---4---4---4----|---4---4---4---4-----4---4---4---4----| 
A|---5---5---5---5------5---5---6---6--|-----5---5---5---5-----5---5---5---5--| 
F|-------------------------------------|--------------------------------------| 
C|-------------------------------------|--------------------------------------| 
G|-------------------------------------|--------------------------------------| 
D|-------------------------------------|--------------------------------------| 

D|-4---4---4---4-------------------------------------------------------------| 
A|---5---5---5---5-repeat until fade-----------------------------------------| 
F|---------------------------------------------------------------------------| 
C|---------------------------------------------------------------------------| 
G|---------------------------------------------------------------------------| 
D|---------------------------------------------------------------------------| 
  

top 5 | ghost
top thrash metal
Outras músicas do artista letras do(a) Ghost
Top cifras »Top artistas »
Petaxxon Comunicação Online
Cifras.com.br - Melhor e mais completo site de cifras e tablaturas do Brasil
Mais de 1 milhão de acordes de músicas cadastradas desde 2003
As informações contidas no nosso site são colaborações de seus usuários e podem conter erros, sendo assim, não nos responsabilizamos sobre nenhuma destas.
close
menos
mais
close
Cor dos acordes:

Cor da letra:

 

save
close
close
 
redimensionar