Cifras e Tablaturas
Ghost

Ghost

Deus In Absentia

Cifras Cancelar Versão de Impressão
cifras

Ghost - Deus In Absentia

fixar na tela  
Exibindo: vídeo-aula ver clipes redimensionar

Tom:

  
Verse, play twice 
d||---------------------------------------|| 
A||:--7---7-7---7-7------5----5-5-7------:|| 
F||---6---6-7---7-6--qr--6-qr-6-6-6--qr---|| 
C||---4---4-7---7-4------6----6-6-4-------|| 
G||:--------5---5--------4----4-4--------:|| 
D||---------------------------------------|| 



Chorus 
d|--------------0----------------0------------------------0---------------0-----------0---- 
A|--------------0----------------0------------------------0---------------0----3------0---- 
F|----4-4-2-2---1------4-4-2-2---1-------7-7----4-4-2-2---1-----4-4-2-2---1----2--2---1---- 
C|----4-4-2-2---2------4-4-2-2---2--4-4--7-7----4-4-2-2---2-----4-4-2-2---2----0--2---2---- 
G|----2-2-0-0-2-2------2-2-0-0-2-2--4-4--5-5----2-2-0-0-2-2-----2-2-0-0-2-2-------0---2---- 
D|------------0-0--------------0-0--2-2-----------------0-0-------------0-0-----------0---- 




Verse 
d|------------------------------------------ 
A|----7---7-7---7-7------5----5-5-7--------- 
F|----6---6-7---7-6--qr--6-qr-6-6-6--qr----- 
C|----4---4-7---7-4------6----6-6-4--------- 
G|----------5---5--------4----4-4----------- 
D|------------------------------------------ 



Verse 
d|------------------------------------------------------ 
A|----7---7-7---7-7------5----------9------------------- 
F|----6---6-7---7-6--qr--6-qr---------9-------8--------- 
C|----4---4-7---7-4------6--------------9-------9----4-- 
G|----------5---5--------4-----4/7----------------9--4-- 
D|-----------------------------------------7---------2-- 



Chorus, both guitars 
d|--------------0----------------0------------------------0---------------0---------------- 
A|--------------0----------------0------------------------0---------------0----3----------- 
F|----4-4-2-2---1------4-4-2-2---1-------7-7----4-4-2-2---1-----4-4-2-2---1----2--2--qr---- 
C|----4-4-2-2---2------4-4-2-2---2--4-4--7-7----4-4-2-2---2-----4-4-2-2---2----0--2-------- 
G|----2-2-0-0-2-2------2-2-0-0-2-2--4-4--5-5----2-2-0-0-2-2-----2-2-0-0-2-2-------0-------- 
D|------------0-0--------------0-0--2-2-----------------0-0-------------0-0---------------- 



Chorus, guitar one 
d|--------------0----------------0------------------------0-4^5^4------------0-----------0-- 
A|--------------0----------------0------------------------0------------------0----3------0-- 
F|----4-4-2-2---1------4-4-2-2---1-------7-7----4-4-2-2---1--------4-4-2-2---1----2--2---1-- 
C|----4-4-2-2---2------4-4-2-2---2--4-4--7-7----4-4-2-2---2--------4-4-2-2---2----0--2---2-- 
G|----2-2-0-0-2-2------2-2-0-0-2-2--4-4--5-5----2-2-0-0-2-2--------2-2-0-0-2-2-------0---2-- 
D|------------0-0--------------0-0--2-2-----------------0-0----------------0-0-----------0-- 


Chorus, guitar two 
d|--------------0----------------0------------------------0------------------0-----------0-- 
A|--------------0----------------0------------------------0------------------0----3------0-- 
F|----4-4-2-2---1------4-4-2-2---1-------7-7----4-4-2-2---1-4^6^4--4-4-2-2---1----2--2---1-- 
C|----4-4-2-2---2------4-4-2-2---2--4-4--7-7----4-4-2-2---2--------4-4-2-2---2----0--2---2-- 
G|----2-2-0-0-2-2------2-2-0-0-2-2--4-4--5-5----2-2-0-0-2-2--------2-2-0-0-2-2-------0---2-- 
D|------------0-0--------------0-0--2-2-----------------0-0----------------0-0-----------0-- 



bridge 
d|--------------------------------------------------------- 
A|--------------------------------------------------------- 
F|-------9---11---9--------5---7---5-----------------7----- 
C|-----9---9----9---9----5---5---5---5------5------7---7--- 
G|---7-----------------3------------------5---5--5--------- 
D|--------------------------------------3------------------ 



bridge 
d|---------------------------------------------------------------------- 
A|---------------------------------------------------------------------- 
F|-------9---11---9--------5---7---5-------------7-4-------7---9---7---- 
C|-----9---9----9---9----5---5---5---5------5------------7---7---7---7-- 
G|---7-----------------3------------------5---5--------5---------------- 
D|--------------------------------------3------------------------------- 



bridge 
d|--------------------------------------------------------- 
A|--------------------------------------------------------- 
F|-------9---11---9--------5---7---5-----------------7----- 
C|-----9---9----9---9----5---5---5---5------5------7---7--- 
G|---7-----------------3------------------5---5--5--------- 
D|--------------------------------------3------------------ 




bridge 
d|---------------------------------------------------------------------- 
A|---------------------------------------------------------------------- 
F|-------9---11---9--------5---7---5-------------7-4-------7---9---7---- 
C|-----9---9----9---9----5---5---5---5------5------------7---7---7---7-- 
G|---7-----------------3------------------5---5--------5---------------- 
D|--------------------------------------3------------------------------- 



SOLO, GUITAR ONE 
d|------------------------------------------------------------------------------------------ 
A|--------------------------------------------------------------------12---10^9------------- 
F|---13^b--11--13^b-13--11-9---11-13-13^b-11--13^b-13--11-9-----=-9------9------11---------- 
C|------------------------------------------------------------=-9---9----------------------- 
G|------------------------------------------------------------7----------------------------- 
D|------------------------------------------------------------------------------------------ 



SOLO, GUITAR ONE 
d|------------------------------------------------------------------------------------------ 
A|--------------------------------------------------------------------12---10^9------------- 
F|---13^b--11--13^b-13--11-9---11-13-13^b-11--13^b-13--11-9-----=-9------9------11---REST--- 
C|------------------------------------------------------------=-9---9----------------------- 
G|------------------------------------------------------------7----------------------------- 
D|------------------------------------------------------------------------------------------ 



SOLO, GUITAR TWO 
d|------------------------------------------------------------------------------------------ 
A|----------------------------------------------------------------------12---10^9----------- 
F|---11--11^9------9^11-9------------11--11^9-----9^11-9----------=-9------9------11-------- 
C|------------11----------12-11--9------------11---------12-11--=-9---9--------------------- 
G|--------------------------------------------------------------7--------------------------- 
D|------------------------------------------------------------------------------------------ 



SOLO, GUITAR TWO 
d|------------------------------------------------------------------------------------------ 
A|----------------------------------------------------------------------12---10^9----------- 
F|---11--11^9------9^11-9------------11--11^9-----9^11-9----------=-9------9------11--REST-- 
C|------------11----------12-11--9------------11---------12-11--=-9---9--------------------- 
G|--------------------------------------------------------------7--------------------------- 
D|------------------------------------------------------------------------------------------ 




Verse 
d|------------------------------------------ 
A|----7---7-7---7-7------5----5-5-7--------- 
F|----6---6-7---7-6--qr--6-qr-6-6-6--qr----- 
C|----4---4-7---7-4------6----6-6-4--------- 
G|----------5---5--------4----4-4----------- 
D|------------------------------------------ 



Verse 
d|------------------------------------------------------ 
A|----7---7-7---7-7------5----------9------------------- 
F|----6---6-7---7-6--qr--6-qr---------9-------8--------- 
C|----4---4-7---7-4------6--------------9-------9----4-- 
G|----------5---5--------4-----4/7----------------9--4-- 
D|-----------------------------------------7---------2-- 



Chorus, both guitars 
d|--------------0----------------0------------------------0---------------0---------------- 
A|--------------0----------------0------------------------0---------------0----3----------- 
F|----4-4-2-2---1------4-4-2-2---1-------7-7----4-4-2-2---1-----4-4-2-2---1----2--2--qr---- 
C|----4-4-2-2---2------4-4-2-2---2--4-4--7-7----4-4-2-2---2-----4-4-2-2---2----0--2-------- 
G|----2-2-0-0-2-2------2-2-0-0-2-2--4-4--5-5----2-2-0-0-2-2-----2-2-0-0-2-2-------0-------- 
D|------------0-0--------------0-0--2-2-----------------0-0-------------0-0---------------- 




Chorus, guitar one 
d|--------------0----------------0------------------------0-4^5^4------------0-----------0-- 
A|--------------0----------------0------------------------0------------------0----3------0-- 
F|----4-4-2-2---1------4-4-2-2---1-------7-7----4-4-2-2---1--------4-4-2-2---1----2--2---1-- 
C|----4-4-2-2---2------4-4-2-2---2--4-4--7-7----4-4-2-2---2--------4-4-2-2---2----0--2---2-- 
G|----2-2-0-0-2-2------2-2-0-0-2-2--4-4--5-5----2-2-0-0-2-2--------2-2-0-0-2-2-------0---2-- 
D|------------0-0--------------0-0--2-2-----------------0-0----------------0-0-----------0-- 



Chorus, guitar two 
d|--------------0----------------0------------------------0------------------0-----------0-- 
A|--------------0----------------0------------------------0------------------0----3------0-- 
F|----4-4-2-2---1------4-4-2-2---1-------7-7----4-4-2-2---1-4^6^4--4-4-2-2---1----2--2---1-- 
C|----4-4-2-2---2------4-4-2-2---2--4-4--7-7----4-4-2-2---2--------4-4-2-2---2----0--2---2-- 
G|----2-2-0-0-2-2------2-2-0-0-2-2--4-4--5-5----2-2-0-0-2-2--------2-2-0-0-2-2-------0---2-- 
D|------------0-0--------------0-0--2-2-----------------0-0----------------0-0-----------0-- 
  

top 5 | ghost
top thrash metal
Outras músicas do artista letras do(a) Ghost
Top cifras »Top artistas »
Petaxxon Comunicação Online
Cifras.com.br - Melhor e mais completo site de cifras e tablaturas do Brasil
Mais de 1 milhão de acordes de músicas cadastradas desde 2003
As informações contidas no nosso site são colaborações de seus usuários e podem conter erros, sendo assim, não nos responsabilizamos sobre nenhuma destas.
close
menos
mais
close
Cor dos acordes:

Cor da letra:

 

save
close
close
 
redimensionar