Cifras e Tablaturas
Ghost

Ghost

Rats

Cifras Cancelar Versão de Impressão Print

Ghost - Rats

Tom: D

  			Intro 
(Slide before playing) 
d|-----------------------|-----------------------|-----------------------|--------| 
A|-----------------------|-----------------------|-----------------------|--------| 
F|-----------------------|-----------------------|-----------------------|--------| 
C|-------------------10~-|---5----------------7~-|-------------------10~-|--5--7--| x2 
G|--------------------7~-|---x----------------x--|--------------------7~-|--5--7--| 
D|---0---0--0--0--0------|---3---3--3--3--3---5~-|---0---0--0--0--0------|--3--5--| 
         PM-------|              PM-------|              PM-------| 

Verse 
(Repeat two times also those 8h10 are a small touch of mine, you can do instead D) 
d|--------------------------------|      d|--------| 
A|--------------------------------|      A|--------|    
F|--------------------------------|      F|--------| 
C|--------------------------------| x3   C|--5--7--| 
G|--------------------------------|      G|--5--7--| 
D|--8h10--0--0--8h10--0--0--0--0--|      D|--3--5--| 
          PM-|        PM-------| 

Pre-Chorus 
d|---------------|---------------|--------------|--------------|----------------| 
A|---------------|---------------|--------------|--------------|----------------| 
F|---------------|---------------|--------------|--------------|----------------| 
C|--9-9-9--9-9-9-|-5-5-5--7------|-7-7-7--5-5-5-|-5-5-5--7-7-7-|--------7-9-10--| 
G|--9-9-9--7-7-7-|-3-3-3--7-----3|-5-5-5--5-5-5-|-3-3-3--7-7-7-|-7-9-10---------| 
D|--7-7-7--------|--------5-3-5--|--------3-3-3-|--------5-5-5-|----------------| 

Chorus 
d|-----------------------|-----------------------|-----------------------|--------| 
A|-----------------------|-----------------------|-----------------------|--------| 
F|-----------------------|-----------------------|-----------------------|--------| 
C|-------------------10~-|---5----------------7~-|-------------------10~-|--5--7--| x2 
G|--------------------7~-|---x----------------x--|--------------------7~-|--5--7--| 
D|---0---0--0--0--0------|---3---3--3--3--3---5~-|---0---0--0--0--0------|--3--5--| 
         PM-------|              PM-------|              PM-------| 


                                                                        d|-7h10h9p7---------------| 
                                                                        A|-------- 10-9-7---------| 
                                                                        F|----------------10-7-9~-| 
                                                                        C|------------------------| 
                                                                        G|------------------------| 
                                                                        D|------------------------| 

Verse 
(Repeat two times) 
d|--------------------------------|      d|--------| 
A|--------------------------------|      A|--------|    
F|--------------------------------|      F|--------| 
C|--------------------------------| x3   C|--5--7--| 
G|--------------------------------|      G|--5--7--| 
D|--8h10--0--0--8h10--0--0--0--0--|      D|--3--5--| 
          PM-|        PM-------| 

Pre-Chorus 
d|---------------|---------------|--------------|--------------|----------------| 
A|---------------|---------------|--------------|--------------|----------------| 
F|---------------|---------------|--------------|--------------|----------------| 
C|--9-9-9--9-9-9-|-5-5-5--7------|-7-7-7--5-5-5-|-5-5-5--7-7-7-|--------7-9-10--| 
G|--9-9-9--7-7-7-|-3-3-3--7-----3|-5-5-5--5-5-5-|-3-3-3--7-7-7-|-7-9-10---------| 
D|--7-7-7--------|--------5-3-5--|--------3-3-3-|--------5-5-5-|----------------| 

Chorus 
d|-----------------------|--------------------| 
A|-----------------------|--------------------| 
F|-----------------------|--------------------| 
C|--2--2--2--10--10--10--|--5--5--5--7--7--7--| x4 
G|--2--2--2--10--10--10--|--5--5--5--7--7--7--| 
D|--0--0--0---8---8---8--|--3--3--3--5--5--5--| 

Pre-Chorus 
d|---------------|---------------|--------------|--------------|----------------| 
A|---------------|---------------|--------------|--------------|----------------| 
F|---------------|---------------|--------------|--------------|----------------| 
C|--9-9-9--9-9-9-|-5-5-5--7------|-7-7-7--5-5-5-|-5-5-5--7-7-7-|--------7-9-10--| 
G|--9-9-9--7-7-7-|-3-3-3--7-----3|-5-5-5--5-5-5-|-3-3-3--7-7-7-|-7-9-10---------| 
D|--7-7-7--------|--------5-3-5--|--------3-3-3-|--------5-5-5-|----------------| 

Solo 
 WIP 

Pre-Chorus 
d|---------------|---------------|--------------|--------------|---------------|-------------------| 
A|---------------|---------------|--------------|--------------|---------------|-------------------| 
F|---------------|---------------|--------------|--------------|---------------|---------14-16-17--| 
C|--9-9-9--9-9-9-|-5-5-5--7------|-7-7-7--5-5-5-|-5-5-5--7-7-7-|--------7-9-10-|-14-16-17----------| 
G|--9-9-9--7-7-7-|-3-3-3--7-----3|-5-5-5--5-5-5-|-3-3-3--7-7-7-|-7-9-10--------|-------------------| 
D|--7-7-7--------|--------5-3-5--|--------3-3-3-|--------5-5-5-|---------------|-------------------| 

Chorus 
d|-----------------------|--------------------| 
A|-----------------------|--------------------| 
F|-----------------------|--------------------| 
C|--2--2--2--10--10--10--|--5--5--5--7--7--7--| x8 
G|--2--2--2--10--10--10--|--5--5--5--7--7--7--| 
D|--0--0--0---8---8---8--|--3--3--3--5--5--5--| 

Outro 
(Open Ds are PM) 
d|----------------------------| 
A|----------------------------| 
F|----------------------------| 
C|----------9-8---------------| 
G|------9---7-6-----9---10-9--| 
D|--0-0-7-0-----0-0-7-0--8-7--| 


*********************************** 

| x Dead note 
| ~ Vibrato 
| / Slide-up 
| h Hammer-on 
| p Pull-off 
| PM Palm muting 

*********************************** 
    	
fixar
fixar inscrever-se

enviado porenviado por: alyslima
cifra enviadaCorrigida por: sem correções
logo top cifrasComente
ico música do artistaMúsicas deste artista
ico curtiuCurtiu?
ico destaqueDestaque
Petaxxon Comunicação Online

Cifras.com.br - Melhor e mais completo site de cifras e tablaturas do Brasil Mais de 1 milhão de acordes de músicas cadastradas desde 2003
As informações contidas no nosso site são colaborações de seus usuários e podem conter erros, sendo assim, não nos responsabilizamos sobre nenhuma destas.

close
menos
mais
close
Cor dos acordes:

Cor da letra:

close
Alinhar acordes a direita Alinhar acordes a esquerda Alinhar acordes em baixo Alinhar acordes no topo
close
  Mostrar todos os acordes Esconder acordes muito fáceis Esconder acordes fáceis Esconder acordes intermediários
redimensionar
glossário