Cifras e Tablaturas
Ghost

Ghost

Square Hammer

Cifras Cancelar Versão de Impressão
cifras

Ghost - Square Hammer

fixar na tela  
Exibindo: vídeo-aula ver clipes redimensionar

Tom:

  
D|--------------------------------| 
G|--------------------------------| 
C|--------------------------------| 
F|--2--4-5--4-5---4-5-0-4-5-0-----| (8x) 
A|--------3----2------------------| 
D|--------------------------------| 

D|--------------------------------| 
A|--------------------------------| 
F|-7-7-7--3-3-3-2-2-2--5-5-5------| 
C|-9-9-9--5-5-5-4-4-4--7-7-7------| (3x) 
G|-9-9-9--5-5-5-4-4-4--7-7-7------| 
D|--------------------------------| 

D|--------------------------------| 
G|--------------------------------| 
C|--------------------------------| 
F|--2--4-5--4-5---4-5-0-4-5-0-----| 
A|--------3----2------------------| 
D|--------------------------------| 

D|--------------------------------| 
A|--------------------------------| 
F|-7-7-7--3-3-3-2-2-2--5-5-5------| 
C|-9-9-9--5-5-5-4-4-4--7-7-7------| (3x) 
G|-9-9-9--5-5-5-4-4-4--7-7-7------| 
D|--------------------------------| 

D|-------------------------------------------------------------| 
A|-------------------------------------------------------------| 
F|-9-9-9-5-5-5--------7-7-7-7-------7/9-9-9-9-5-5-5---------7--| 
C|-9-9-9-5-5-5-5-5-5--7-7-7-7-----5-7/9-9-9-9-5-5-5-5-5-5---7--| 
G|-7-7-7-3-3-3-5-5-5--5-5-5-5-5-7---5/7-7-7-7-3-3-3-5-5-5-0-5--| 
D|-------------3-3-3--------------------------------3-3-3-0----| 
  

top 5 | ghost
top thrash metal
Outras músicas do artista letras do(a) Ghost
Top cifras »Top artistas »
Petaxxon Comunicação Online
Cifras.com.br - Melhor e mais completo site de cifras e tablaturas do Brasil
Mais de 1 milhão de acordes de músicas cadastradas desde 2003
As informações contidas no nosso site são colaborações de seus usuários e podem conter erros, sendo assim, não nos responsabilizamos sobre nenhuma destas.
close
menos
mais
close
Cor dos acordes:

Cor da letra:

 

save
close
close
 
redimensionar