Cifras e Tablaturas
Gnarls Barkley

Gnarls Barkley

Crazy Tablatura Verificada

Ano: 2006
Album : Crazy

Cifras Cancelar Versão de Impressão
cifras

Gnarls Barkley - Crazy

fixar na tela  
Exibindo: vídeo-aula ver clipes redimensionar

Tom:

C

ver outros tons
  
Intro   


e|---------------------------------------------------------|  
B|---------------------------------------------------------|  
G|---------------------------------------------------------|  
D|---------------------------------------------------------|  
A|----3--3-3-3--3--3--3-3-3--3--6--6-6-6--6--6--6-6-6--6---|  
E|---------------------------------------------------------|  

e|------------------------------------------------------------|  
B|------------------------------------------------------------|  
G|------------------------------------------------------------|  
D|------------------------------------------------------------|  
A|------------------------------------------------------------|  
E|----4--4-4-4--4--4--4--4-4-4--4--3--3-3-3--3--3--3-3-3--3-3-|  

Verse:  


e|---------------------------------------------------------|  
B|---------------------------------------------------------|  
G|---------------------------------------------------------|  
D|---------------------------------------------------------|  
A|----3--3-3-3--3--3--3-3-3--3--6--6-6-6--6--6--6-6-6--6---|  
E|---------------------------------------------------------|  

e|------------------------------------------------------------|  
B|------------------------------------------------------------|  
G|------------------------------------------------------------|  
D|------------------------------------------------------------|  
A|----------------------------------------------------------3-|  
E|----4--4-4-4--4--4--4--4-4-4--4--3--3-3-3--3--3--3-3-3--3---|  

Chorus:  

e|-------------------------------------------------------|  
B|-------------------------------------------------------|  
G|-------------------------------------------------------|  
D|-------------------------------------------------------|  
A|----3--3-3-3--3--3--3-3-3--3---------------------------|  
E|------------------------------4--4-4-4--4--4--4-4-4--4-|  

e|----------------------------------------------------------|  
B|----------------------------------------------------------|  
G|----------------------------------------------------------|  
D|----------------------------------------------------------|  
A|----6--6-6-6--6--6--6-6-6--6------------------------------|  
E|------------------------------3--3-3-3--3--3--3-3-3--3-3--|  

End:  


e|-------------------------------------------------------|  
B|-------------------------------------------------------|  
G|-------------------------------------------------------|  
D|-------------------------------------------------------|  
A|----3--3-3-3--3--3--3-3-3--3---------------------------|  
E|------------------------------4--4-4-4--4--4--4-4-4--4-|  

e|------------------------------------------------------------|  
B|------------------------------------------------------------|  
G|------------------------------------------------------------|  
D|------------------------------------------------------------|  
A|----6--6-6-6--6--6--6-6-6--6------------------------------3-|  
E|------------------------------3--3-3-3--3--3--3-3-3--3-3----|  

  

top 5 | gnarls barkley
top pop music
Outras músicas do artista letras do(a) Gnarls Barkley
5.
Run
Top cifras »Top artistas »
Petaxxon Comunicação Online
Cifras.com.br - Melhor e mais completo site de cifras e tablaturas do Brasil
Mais de 1 milhão de acordes de músicas cadastradas desde 2003
As informações contidas no nosso site são colaborações de seus usuários e podem conter erros, sendo assim, não nos responsabilizamos sobre nenhuma destas.
close
menos
mais
close
Cor dos acordes:

Cor da letra:

 

save
close
close
 
redimensionar