Cifras e Tablaturas
Godsmack

Godsmack

Bulletproof

Cifras Cancelar Versão de Impressão

Godsmack - Bulletproof

Tom: C#

  			
Riff 1 
D#|-----------------------------------------------------| 
A#|-----------------------------------------------------| 
F#|--------------------------------------7--7-7-7-7-7-7-| 
C#|-4-4--4-4----7--7-7-7-7-7-2-2--2-2----7--7-7-7-7-7-7-| 
G#|-4-4--4-4----7--7-7-7-7-7-2-2--2-2----5--5-5-5-5-5-5-| 
C#|-4-4--4-4----7--7-7-7-7-7-2-2--2-2-------------------| 

D#|-----------------------------------------------| 
A#|-----------------------------------3-----------| 
F#|-----------------------------------2-----------| 
C#|-4-4--4-4----7--7-7-7-7-7-2-2--2-2-0---0-2-2-2-| 
G#|-4-4--4-4----7--7-7-7-7-7-2-2--2-2-0---0-2-2-2-| 
C#|-4-4--4-4----7--7-7-7-7-7-2-2--2-2-0---0-2-2-2-| 

Riff 2   "Contemplating, oscillating and it's stressin' me out..." 
D#|--------------------------------------------------------------------------| 
A#|--------------------------------------------------------------------------| 
F#|-------------------------------------------------------------7-7--7-7-7-7-| 
C#|-4-4--4-4--------4-4--4-4\---------4-4--4-4\----2-2--2-2\----x-x--x-x-x-x-| 
G#|-4-4--4-4--------4-4--4-4\---------4-4--4-4\----2-2--2-2\----5-5--5-5-5-5-| 
C#|-4-4--4-4--------4-4--4-4\---------4-4--4-4\----2-2--2-2\-----------------| 

D#|-------------------------------------| 
A#|-------------------------------------| 
F#|----------------------7--7-7-7-7-7-7-| 
C#|-4-4--4-4\----2-2-2-2-x--x-x-x-x-x-x-| 
G#|-4-4--4-4\----2-2-2-2-5--5-5-5-5-5-5-| 
C#|-4-4--4-4\----2-2-2-2----------------| 

Riff 3   "Now that you want it, now that you need it..." 
D#|-----------------------------------------------------| 
A#|-----------------------------------------------------| 
F#|--------------------------------------7--7-7-7-7-7-7-| 
C#|-4-4--4-4----7--7-7-7-7-7-2-2--2-2----7--7-7-7-7-7-7-| 
G#|-4-4--4-4----7--7-7-7-7-7-2-2--2-2----5--5-5-5-5-5-5-| 
C#|-4-4--4-4----7--7-7-7-7-7-2-2--2-2-------------------| 

D#|-----------------------------------------------| 
A#|-----------------------------------3-----------| 
F#|-----------------------------------2-----------| 
C#|-4-4--4-4----7--7-7-7-7-7-2-2--2-2-0---x-x-x-x-| 
G#|-4-4--4-4----7--7-7-7-7-7-2-2--2-2-0---x-x-x-x-| 
C#|-4-4--4-4----7--7-7-7-7-7-2-2--2-2-0---x-x-x-x-| 

       "You make me so bulletproof..." 
D#|-------------------------------------------------------| 
A#|-------------------------------------------------------| 
F#|---------------------------------------7-7-7-7-7-7-7-7-| 
C#|-4--4--4-4---7--7-7-7-7-7-2--2--2-2----7-7-7-7-7-7-7-7-| 
G#|-4--4--4-4---7--7-7-7-7-7-2--2--2-2----5-5-5-5-5-5-5-5-| 
C#|-4--4--4-4---7--7-7-7-7-7-2--2--2-2--------------------| 

D#|------------------------------------------------| 
A#|------------------------------------3-----------| 
F#|------------------------------------2-----------| 
C#|-4--4--4-4---7--7-7-7-7-7-2--2--2-2-0---0-2-2-2-| 
G#|-4--4--4-4---7--7-7-7-7-7-2--2--2-2-0---0-2-2-2-| 
C#|-4--4--4-4---7--7-7-7-7-7-2--2--2-2-0---0-2-2-2-| 

Play Riff 2 x1   "You're addicted and so twisted..." 

Riff 2 ending alteration: 
D#|---------------------------------------------| 
A#|---------------------------------------------| 
F#|--------------6-6-6-6---------7--7-7-7-7-7-7-| 
C#|-4-4--4-4\----x-x-x-x-2-2-2-2-x--x-x-x-x-x-x-| 
G#|-4-4--4-4\----4-4-4-4-2-2-2-2-5--5-5-5-5-5-5-| 
C#|-4-4--4-4\------------2-2-2-2----------------| 

Play Riff 3 x1   "Now that you want it, now that you need it..." 

Riff 3 alteration: 
D#|------------------------------------------------------| 
A#|------------------------------------------------------| 
F#|--------------------------------------6-6-6-6-6-6-6-6-| 
C#|-4--4--4-4---7--7-7-7-7-7-2--2--2-2---6-6-6-6-6-6-6-6-| 
G#|-4--4--4-4---7--7-7-7-7-7-2--2--2-2---4-4-4-4-4-4-4-4-| 
C#|-4--4--4-4---7--7-7-7-7-7-2--2--2-2-------------------| 

Solo 
D#|---------------------------------------------------------------------12-12-12----| 
A#|-----------------------------14-14-14--------------------------------------------| 
F#|-13b14r13-11-13b14r13-11--11----------11-13b14r13-11-13b14r13-11--11----------11-| 
C#|---------------------------------------------------------------------------------| 
G#|---------------------------------------------------------------------------------| 
C#|---------------------------------------------------------------------------------| 

D#|-----------------------------------------------------------------------------------------| 
A#|-----------------------------14-14-14----12-12-12----------------------------------------| 
F#|-13b14r13-11-13b14r13-11--11----------11----------14-14-14-13-13-13-------------------11-| 
C#|--------------------------------------------------------------------14-14-14-14-14-14----| 
G#|-----------------------------------------------------------------------------------------| 
C#|-----------------------------------------------------------------------------------------| 

D#|---------------------------------------------------------------------12-12-12----| 
A#|-----------------------------14-14-14--------------------------------------------| 
F#|-13b14r13-11-13b14r13-11--11----------11-13b14r13-11-13b14r13-11--11----------11-| 
C#|---------------------------------------------------------------------------------| 
G#|---------------------------------------------------------------------------------| 
C#|---------------------------------------------------------------------------------| 

D#|--------------------------------------------------| 
A#|-----------------------------14-14-14----14b15r14-| 
F#|-13b14r13-11-13b14r13-11--11----------11----------| 
C#|--------------------------------------------------| keep bending and releasing the last bend 
G#|--------------------------------------------------| 
C#|--------------------------------------------------| 

Solo rhythm (just the chords) 
D#|-----------------------------| 
A#|-----------------------------| 
F#|-7---------------------------| 
C#|-7------2----2-----2-----2/4-| x3 
G#|-5------2--------------------| 
C#|--------2------2-2---2-2-----| 

D#|-----------------------------| 
A#|-----------------------------| 
F#|-7------6--------------------| 
C#|-7------6--------------------| 
G#|-5------4--------------------| 
C#|-----------------------------| 

Fill 1 (very light distortion) 
D#|---------------------------------------------0-| 
A#|---------------------------------------------3-| 
F#|---------------------------------------------2-| 
C#|-4--4--4-4-/7--7-7--7-7-7-7-2--2--2-2-2------0-| 
G#|-4--4--4-4-/7--7-7--7-7-7-7-2--2--2-2-2------0-| 
C#|-4--4--4-4-/7--7-7--7-7-7-7-2--2--2-2-2------0-| 

Final Chorus: 
D#|-----------------------------------------------| 
A#|-----------------------------------3-----------| 
F#|-----------------------------------2-----------| 
C#|-4-4--4-4----7--7-7-7-7-7-2-2--2-2-0---x-x-x-x-| 
G#|-4-4--4-4----7--7-7-7-7-7-2-2--2-2-0---x-x-x-x-| 
C#|-4-4--4-4----7--7-7-7-7-7-2-2--2-2-0---x-x-x-x-| 

D#|-------------------------------------------------------| 
A#|-------------------------------------------------------| 
F#|---------------------------------------7-7-7-7-7-7-7-7-| 
C#|-4--4--4-4---7--7-7-7-7-7-2--2--2-2----7-7-7-7-7-7-7-7-| x4 
G#|-4--4--4-4---7--7-7-7-7-7-2--2--2-2----5-5-5-5-5-5-5-5-| 
C#|-4--4--4-4---7--7-7-7-7-7-2--2--2-2--------------------| 

Enjoy! 
    	
fixar
fixar inscrever-se

enviado porenviado por: jessgomes
cifra enviadaCorrigida por: sem correções
logo top cifrasComente
ico música do artistaMúsicas deste artista
ico curtiuCurtiu?
ico destaqueDestaque
Petaxxon Comunicação Online

Cifras.com.br - Melhor e mais completo site de cifras e tablaturas do Brasil Mais de 1 milhão de acordes de músicas cadastradas desde 2003
As informações contidas no nosso site são colaborações de seus usuários e podem conter erros, sendo assim, não nos responsabilizamos sobre nenhuma destas.

close
menos
mais
close
Cor dos acordes:

Cor da letra:

close
Alinhar acordes a direita Alinhar acordes a esquerda Alinhar acordes em baixo Alinhar acordes no topo
close
  Mostrar todos os acordes Esconder acordes muito fáceis Esconder acordes fáceis Esconder acordes intermediários
redimensionar
glossário