Cifras e Tablaturas
Gojira

Gojira

Stranded

Cifras Cancelar Versão de Impressão
cifras

Gojira - Stranded

fixar na tela  
Exibindo: vídeo-aula ver clipes redimensionar

Tom:

  
Tuning: DGCFAD  

Intro:

Guitars 1 and 2 (w/ dist) - use pitch shifter (whammy pedal) set to +2 octaves 
                                                                            ............... 
D|------------------------------------------------|----------------------------------------| 
A|------------------------------------------------|---------------------------------0------| 
F|------------------------------------------------|-----------------------------2-------2--| 
C|------------------------------------------------|-------------------------3\\\-----------| 
G|------------------------------------------------|----------------------------------------| 
D|-----0-0-0-------0-0-0-------0-0-0-------0-0-0--|-----0-0-0-------0-0-0------------------|\ 
       * * *       * * *       * * *       * * *        * * *       * * *   ...............  x2 
D|------------------------------------------------|----------------------------------------|/ 
A|------------------------------------------------|---------------------------------0------| 
F|--\\\-------------------------------------------|-----------------------------2----------| 
C|------------------------------------------------|-------------------------3\\\-----------| 
G|------------------------------------------------|----------------------------------------| 
D|-----0-0-0-------0-0-0-------0-0-0-------0-0-0--|-----0-0-0-------0-0-0------------------| 
       * * *       * * *       * * *       * * *        * * *       * * *   ............... 
D|-0----------------------------------------------|----------------------------------------| 
A|-0----------------------------------------------|---------------------------------0------| 
F|-0----------------------------------------------|-----------------------------2-------2--| 
C|------------------------------------------------|-------------------------3\\\-----------| 
G|------------------------------------------------|----------------------------------------| 
D|-----0-0-0-------0-0-0-------0-0-0-------0-0-0--|-----0-0-0-------0-0-0------------------| 
       * * *       * * *       * * *       * * *        * * *       * * *   ............... 
D|------------------------------------------------|----------------------------------------| 
A|------------------------------------------------|---------------------------------0------| 
F|--\\\-------------------------------------------|-----------------------------2-------2//| 
C|------------------------------------------------|-------------------------3\\\-----------| 
G|------------------------------------------------|----------------------------------------| 
D|-----0-0-0-------0-0-0-------0-0-0-------0-0-0--|-----0-0-0-------0-0-0------------------| 
       * * *       * * *       * * *       * * *        * * *       * * *   ............... 
D|-0----------------------------------------------|----------------------------------------| 
A|-0----------------------------------------------|---------------------------------0------| 
F|-0----------------------------------------------|-----------------------------2-------2--| 
C|------------------------------------------------|-------------------------3\\\-----------| 
G|------------------------------------------------|----------------------------------------| 
D|-----0-0-0-------0-0-0-------0-0-0-------0-0-0--|-----0-0-0-------0-0-0------------------| 
       * * *       * * *       * * *       * * *        * * *       * * *   ............... 
D|------------------------------------------------|----------------------------------------| 
A|------------------------------------------------|---------------------------------0------| 
F|--\\\-------------------------------------------|-----------------------------2----------| 
C|------------------------------------------------|-------------------------3\\\-----------| 
G|------------------------------------------------|----------------------------------------| 
D|-----0-0-0-------0-0-0-------0-0-0-------0-0-0--|-----0-0-0-------0-0-0------------------| 
       * * *       * * *       * * *       * * *        * * *       * * *  

|--------------------------------------------------------------------------------------------------------| 
|                                          VERSE (00:45-01:06)                                           | 
|--------------------------------------------------------------------------------------------------------| 

Guitars 1 and 2 (w/ dist) 
                                                                                        ............... 
D|--------------------------------------------------------|--------------------------------------------| 
A|--------------------------------------------------------|-------------------------------------0------| 
F|--------------------------------------------------------|---------------------------------2-------2--| x3 
C|--------------------------------------------------------|-----------------------------3--------------| 
G|-2-2-2--2-2-2--2-2-2--2-2-2--2-2-2--2-2-2--2-2-2--2-2-2-|-2-2-2--2-2-2--2-2-2--2-2-2-----------------| 
D|-0-0-0--0-0-0--0-0-0--0-0-0--0-0-0--0-0-0--0-0-0--0-0-0-|-0-0-0--0-0-0--0-0-0--0-0-0-----------------| 
   * * *  * * *  * * *  * * *  * * *  * * *  * * *  * * *   * * *  * * *  * * *  * * * 
                                                                                        ............... 
D|--------------------------------------------------------|--------------------------------------------| 
A|--------------------------------------------------------|-------------------------------------0------| 
F|--------------------------------------------------------|---------------------------------2----------| 
C|--------------------------------------------------------|-----------------------------3--------------| 
G|-2-2-2--2-2-2--2-2-2--2-2-2--2-2-2--2-2-2--2-2-2--2-2-2-|-2-2-2--2-2-2--2-2-2--2-2-2-----------------| 
D|-0-0-0--0-0-0--0-0-0--0-0-0--0-0-0--0-0-0--0-0-0--0-0-0-|-0-0-0--0-0-0--0-0-0--0-0-0-----------------| 
   * * *  * * *  * * *  * * *  * * *  * * *  * * *  * * *   * * *  * * *  * * *  * * *  

|--------------------------------------------------------------------------------------------------------| 
|                                          Chorus (01:06-01:29)                                          | 
|--------------------------------------------------------------------------------------------------------| 

Guitars 1 and 2 (w/ dist) 

D|--------------------------------------------------------| 
A|--------------------------------------------------------| 
F|--------------------------------------------------------| 
C|-------3---3---------7---7---------5---5---------2---2--| x5 
G|-------3---3---------7---7---------5---5---------2---2--| 
D|-1--1--1---1---5--5--5---5---3--3--3---3---0--0--0---0--| 
   *  *          *  *          *  *          *  *   
D|--------------------------------------------------------| 
A|--------------------------------------------------------| 
F|--------------------------------------------------------| 
C|-------2---2---------2---2---------2---2---------2---2--| 
G|-------2---2---------2---2---------2---2---------2---2--| 
D|-0--0--0---0---0--0--0---0---0--0--0---0---0--0--0---0--| 
   *  *          *  *          *  *          *  * 

|--------------------------------------------------------------------------------------------------------| 
|                                         verse 2 (01:29-01:50)                                          | 
|--------------------------------------------------------------------------------------------------------| 

Guitar 1 (w/ dist) 
                           ..............   ....................... 
D|-----|-----|-----|----------------------|-0------|-------|-------|------------------| 
A|-----|-----|-----|---------------0------|-0------|-------|-------|------------------| 
F|-----|-----|-----|-----------2-------2--|-0------|-------|-------|------------------| 
C|-----|-----|-----|-------3--------------|--------|-------|-------|-2-----3-----5----| 
G|-----|-----|-----|----------------------|--------|-------|-------|------------------| 
D|-----|-----|-----|----------------------|--------|-------|-------|------------------| 
                                            .......................................... 
D|-----|-----|-----|----------------------|-0------|-------|-------|------------------| 
A|-----|-----|-----|----------------------|-0------|-------|-------|------------------| 
F|-----|-----|-----|----------------------|-0------|-------|-------|------------------| 
C|-----|-----|-----|----------------------|--------|-------|-------|------------------| 
G|-----|-----|-----|----------------------|--------|-------|-------|------------------| 
D|-----|-----|-----|----------------------|--------|-------|-------|------------------| 

|--------------------------------------------------------------------------------------------------------| 
|                                         Chorus 2 (01:50-02:21)                                         | 
|--------------------------------------------------------------------------------------------------------| 

Guitars 1 and 2 (w/ dist) 
                                                       -----------| 
D|--------------------------------------------------------|       | 
A|--------------------------------------------------------|       | 
F|--------------------------------------------------------|       | 
C|-------3---3---------7---7---------5---5---------2---2--| x3    | 
G|-------3---3---------7---7---------5---5---------2---2--|       | 
D|-1--1--1---1---5--5--5---5---3--3--3---3---0--0--0---0--|       | 
   *  *          *  *          *  *          *  *                 | x2 
D|--------------------------------------------------------|       | 
A|--------------------------------------------------------|       | 
F|--------------------------------------------------------|       | 
C|-------2---2---------2---2---------2---2---------2---2--|       | 
G|-------2---2---------2---2---------2---2---------2---2--|       | 
D|-0--0--0---0---0--0--0---0---0--0--0---0---0--0--0---0--|       | 
   *  *          *  *          *  *          *  *      -----------| 

|--------------------------------------------------------------------------------------------------------| 
|                                        INTERLUDE (02:21-02:52)                                         | 
|--------------------------------------------------------------------------------------------------------| 

Guitars 1 and 2 (w/ dist and pitch shifter) 
                                                                            ............... 
D|------------------------------------------------|----------------------------------------| 
A|------------------------------------------------|---------------------------------0------| 
F|------------------------------------------------|-----------------------------2-------2--| 
C|------------------------------------------------|-------------------------3\\\-----------| 
G|------------------------------------------------|----------------------------------------| 
D|-----0-0-0-------0-0-0-------0-0-0-------0-0-0--|-----0-0-0-------0-0-0------------------| 
       * * *       * * *       * * *       * * *        * * *       * * *   ...............  
D|------------------------------------------------|----------------------------------------| 
A|------------------------------------------------|---------------------------------0------| 
F|--\\\-------------------------------------------|-----------------------------2----------| 
C|------------------------------------------------|-------------------------3\\\-----------| 
G|------------------------------------------------|----------------------------------------| 
D|-----0-0-0-------0-0-0-------0-0-0-------0-0-0--|-----0-0-0-------0-0-0------------------| 
       * * *       * * *       * * *       * * *        * * *       * * *   ............... 
D|-0----------------------------------------------|----------------------------------------| 
A|-0----------------------------------------------|---------------------------------0------| 
F|-0----------------------------------------------|-----------------------------2-------2--| 
C|------------------------------------------------|-------------------------3\\\-----------| 
G|------------------------------------------------|----------------------------------------| 
D|-----0-0-0-------0-0-0-------0-0-0-------0-0-0--|-----0-0-0-------0-0-0------------------| 
       * * *       * * *       * * *       * * *        * * *       * * *   ............... 
D|------------------------------------------------|----------------------------------------| 
A|------------------------------------------------|---------------------------------0------| 
F|--\\\-------------------------------------------|-----------------------------2-------2//| 
C|------------------------------------------------|-------------------------3\\\-----------| 
G|------------------------------------------------|----------------------------------------| 
D|-----0-0-0-------0-0-0-------0-0-0-------0-0-0--|-----0-0-0-------0-0-0------------------| 
       * * *       * * *       * * *       * * *        * * *       * * *   ............... 
D|-0----------------------------------------------|----------------------------------------| 
A|-0----------------------------------------------|---------------------------------0------| 
F|-0----------------------------------------------|-----------------------------2-------2--| 
C|------------------------------------------------|-------------------------3\\\-----------| 
G|------------------------------------------------|----------------------------------------| 
D|-----0-0-0-------0-0-0-------0-0-0-------0-0-0--|-----0-0-0-------0-0-0------------------| 
       * * *       * * *       * * *       * * *        * * *       * * *   ............... 
D|------------------------------------------------|----------------------------------------| 
A|------------------------------------------------|---------------------------------0------| 
F|--\\\-------------------------------------------|-----------------------------2----------| 
C|------------------------------------------------|-------------------------3\\\-----------| 
G|------------------------------------------------|----------------------------------------| 
D|-----0-0-0-------0-0-0-------0-0-0-------0-0-0--|-----0-0-0-------0-0-0------------------| 
       * * *       * * *       * * *       * * *        * * *       * * *  

Guitar 3 (w/ dist and phaser) 

4 bars empty, then: 

D|-------------------------------------------------|------------------------------------------------| 
A|-------------------------------------------------|------------------------------------------------| 
F|-------------------------------------------------|------------------------------------------------| 
C|-10-10-10-10-10-10-10-10-10-10-10-10-10-10-10-10-|-9--9--9--9--9--9--9--9--9--9--9--9--9--9--9--9-| 
G|-x--x--x--x--x--x--x--x--x--x--x--x--x--x--x--x--|-x--x--x--x--x--x--x--x--x--x--x--x--x--x--x--x-| 
D|-8--8--8--8--8--8--8--8--8--8--8--8--8--8--8--8--|-7--7--7--7--7--7--7--7--7--7--7--7--7--7--7--7-| 

D|------------------------------------------------|-------------------------------------------------| 
A|------------------------------------------------|-------------------------------------------------| 
F|------------------------------------------------|-------------------------------------------------| 
C|-9s14-14-14-14-14-14-14-14-14-14-14-14-14-14-14-|-14-14-14-14-14-14-14-14s15-15-15-15-15-15-15-15-| 
G|-x--x--x--x--x--x--x--x--x--x--x--x--x--x--x--x-|--x--x--x--x--x--x--x--x--x--x--x--x--x--x--x--x-| 
D|-7s12-12-12-12-12-12-12-12-12-12-12-12-12-12-12-|-12-12-12-12-12-12-12-12s13-13-13-13-13-13-13-13-| 

D|-------------------------------------------------|------------------------------------------------| 
A|-------------------------------------------------|------------------------------------------------| 
F|-------------------------------------------------|------------------------------------------------| 
C|-10-10-10-10-10-10-10-10-10-10-10-10-10-10-10-10-|-9--9--9--9--9--9--9--9--9--9--9--9--9--9--9--9-| 
G|-x--x--x--x--x--x--x--x--x--x--x--x--x--x--x--x--|-x--x--x--x--x--x--x--x--x--x--x--x--x--x--x--x-| 
D|-8--8--8--8--8--8--8--8--8--8--8--8--8--8--8--8--|-7--7--7--7--7--7--7--7--7--7--7--7--7--7--7--7-| 

D|------------------------------------------------|-------------------------------------------------| 
A|------------------------------------------------|-------------------------------------------------| 
F|------------------------------------------------|-------------------------------------------------| 
C|-9s14-14-14-14-14-14-14-14-14s12-12-12-12s15-15-|-15-15-15-15-15-15-15-15-15-15-15-15-15-15-15-15-| 
G|-x--x--x--x--x--x--x--x--x--x--x--x--x--x--x--x-|--x--x--x--x--x--x--x--x--x--x--x--x--x--x--x--x-| 
D|-7s12-12-12-12-12-12-12-12-12s10-10-10-10s13-13-|-13-13-13-13-13-13-13-13-13-13-13-13-13-13-13-13-| 

|--------------------------------------------------------------------------------------------------------| 
|                                         Chorus 3 (02:52-03:24)                                         | 
|--------------------------------------------------------------------------------------------------------| 
                                             same as Chorus 2  
|--------------------------------------------------------------------------------------------------------| 
|                                          BRIDGE (03:24-04:05)                                          | 
|--------------------------------------------------------------------------------------------------------| 

Guitar 1 (w/ dist) 
                                                                ----------| 
D|--------------------------------|--------------------------------|      | 
A|--------------------------------|--------------------------------|      | 
F|--------------------------------|--------------------------------|      | 
C|-3---3---3---3---3---3---3---3--|-7---7---7---7---7---7---7---7--|      | 
G|-3---3---3---3---3---3---3---3--|-7---7---7---7---7---7---7---7--|      |  
D|-1---1---1---1---1---1---1---1--|-5---5---5---5---5---5---5---5--|      | 
                                                                          | x3 
D|--------------------------------|----------------------------------|    | 
A|--------------------------------|----------------------------------|    | 
F|--------------------------------|----------------------------------|    | 
C|-5---5---5---5---5---5---5---5--|-5---5---5---5---5--7--7---5---5--|    | 
G|-5---5---5---5---5---5---5---5--|-5---5---5---5---x--x--x---x---x--|    | 
D|-3---3---3---3---3---3---3---3--|-3---3---3---3---3--5--5---3---3--|    | 
                                                                 ---------| 

D|--------------------------------|--------------------------------| 
A|--------------------------------|--------------------------------| 
F|--------------------------------|--------------------------------| 
C|-3---3---3---3---3---3---3---3--|-7---7---7---7---7---7---7---7--| 
G|-3---3---3---3---3---3---3---3--|-7---7---7---7---7---7---7---7--| 
D|-1---1---1---1---1---1---1---1--|-5---5---5---5---5---5---5---5--| 

D|--------------------------------|--------------------------------| 
A|--------------------------------|--------------------------------| 
F|--------------------------------|--------------------------------| 
C|-5---5---5---5---5---5---5---5--|-5---5---5---5---5---5---5---5--| 
G|-5---5---5---5---5---5---5---5--|-5---5---5---5---5---5---5---5--| 
D|-3---3---3---3---3---3---3---3--|-3---3---3---3---3---3---3---3--| 

Guitar 2 (w/ dist) 

D|------0------|------0------|------0------|-0----------------------| 
A|------0------|------0------|------0------|-0----------------------| 
F|------0------|------0------|------0------|-0----------------------| x3 
C|-3----3------|-7----7------|-5----5------|-5-----5--7--7---5---5--| 
G|-3----3------|-7----7------|-5----5------|-5-----x--x--x---x---x--| 
D|-1----1------|-5----5------|-3----3------|-3-----3--5--5---3---3--| 

D|------0------|------0------|------0------|-0---------------------------| 
A|------0------|------0------|------0------|-0---------------------------| 
F|------0------|------0------|------0------|-0---------------------------| 
C|-3----3------|-7----7------|-5----5------|-5----5---5---5---5---5---5--| 
G|-3----3------|-7----7------|-5----5------|-5----5---5---5---5---5---5--| 
D|-1----1------|-5----5------|-3----3------|-3----3---3---3---3---3---3--| 

|--------------------------------------------------------------------------------------------------------| 
|                                          OUTRO (04:05-04:32)                                           | 
|--------------------------------------------------------------------------------------------------------| 

Guitars 1 and 2 (w/ dist and pitch shifter) 

                                                                            ............... 
D|------------------------------------------------|----------------------------------------| 
A|------------------------------------------------|---------------------------------0------| 
F|------------------------------------------------|-----------------------------2-------2--| 
C|------------------------------------------------|-------------------------3\\\-----------| 
G|------------------------------------------------|----------------------------------------| 
D|-----0-0-0-------0-0-0-------0-0-0-------0-0-0--|-----0-0-0-------0-0-0------------------| 
       * * *       * * *       * * *       * * *        * * *       * * *   ............... 
D|------------------------------------------------|----------------------------------------| 
A|------------------------------------------------|---------------------------------0------| 
F|--\\\-------------------------------------------|-----------------------------2-------2//| 
C|------------------------------------------------|-------------------------3\\\-----------| 
G|------------------------------------------------|----------------------------------------| 
D|-----0-0-0-------0-0-0-------0-0-0-------0-0-0--|-----0-0-0-------0-0-0------------------| 
       * * *       * * *       * * *       * * *        * * *       * * *   ............... 
D|-0----------------------------------------------|----------------------------------------| 
A|-0----------------------------------------------|---------------------------------0------| 
F|-0----------------------------------------------|-----------------------------2-------2--| 
C|------------------------------------------------|-------------------------3\\\-----------| 
G|------------------------------------------------|----------------------------------------| 
D|-----0-0-0-------0-0-0-------0-0-0-------0-0-0--|-----0-0-0-------0-0-0------------------| 
       * * *       * * *       * * *       * * *        * * *       * * *   ............... 
D|------------------------------------------------|----------------------------------------| 
A|------------------------------------------------|---------------------------------0------| 
F|--\\\-------------------------------------------|-----------------------------2----------| 
C|------------------------------------------------|-------------------------3\\\-----------| 
G|------------------------------------------------|----------------------------------------| 
D|-----0-0-0-------0-0-0-------0-0-0-------0-0-0--|-----0-0-0-------0-0-0------------------| 
       * * *       * * *       * * *       * * *        * * *       * * * 
  

top 5 | gojira
top thrash metal
Outras músicas do artista letras do(a) Gojira
Top cifras »Top artistas »
Petaxxon Comunicação Online
Cifras.com.br - Melhor e mais completo site de cifras e tablaturas do Brasil
Mais de 1 milhão de acordes de músicas cadastradas desde 2003
As informações contidas no nosso site são colaborações de seus usuários e podem conter erros, sendo assim, não nos responsabilizamos sobre nenhuma destas.
close
menos
mais
close
Cor dos acordes:

Cor da letra:

 

save
close
close
 
redimensionar