Cifras e Tablaturas
Goldfinger

Goldfinger

Beacon

Cifras Cancelar Versão de Impressão
cifras

Goldfinger - Beacon

fixar na tela  
Exibindo: vídeo-aula ver clipes redimensionar

Tom:

F

ver outros tons
  
Intro 
Guitar 1 
e|-----------------------|-----------------------|-----------------------|-----------------------| 
B|14-14-14-13--x--x-14-14|14-13--x--x-14-16-16-16|14-14-14-13--x--x-14-14|14-13--x--x-14-16-16-16| 
G|13-13-13-13--x--x-13-13|13-13--x--x-13-13-13-13|13-13-13-13--x--x-13-13|13-13--x--x-13-13-13-13| 
D|-----------------------|-----------------------|-----------------------|-----------------------| 
A|-----------------------|-----------------------|-----------------------|-----------------------| 
E|-----------------------|-----------------------|-----------------------|-----------------------| x2 

Verse 
Guitar 1 
  F5                      F5                      F#5                     F#5 
e|-----------------------|-----------------------|-----------------------|-----------------------| 
B|-----------------------|-----------------------|-----------------------|-----------------------| 
G|-----------------------|-----------------------|-----------------------|-----------------------| 
D|-------3--3--3--3--3--3|-3--3--3--3--3--3--3--3|-4--4--4--4--4--4--4--4|-4--4--4--4--4--4--4--4| 
A|-------3--3--3--3--3--3|-3--3--3--3--3--3--3--3|-4--4--4--4--4--4--4--4|-4--4--4--4--4--4--4--4| 
E|-------1--1--1--1--1--1|-1--1--1--1--1--1--1--1|-2--2--2--2--2--2--2--2|-2--2--2--2--2--2--2--2| 
  Over the mountains I see the open sky. 

Guitar 1 
  C#5                     C#5                     G#/C                    G#/C 
e|-----------------------|-----------------------|-----------------------|-----------------------| 
B|-----------------------|-----------------------|-----------------------|-----------------------| 
G|-6--6--6--6--6--6--6--6|-6--6--6--6--6--6--6--6|-5--5--5--5--5--5--5--5|-5--5--5--5--5--5--5--5| 
D|-6--6--6--6--6--6--6--6|-6--6--6--6--6--6--6--6|-6--6--6--6--6--6--6--6|-6--6--6--6--6--6--6--6| 
A|-4--4--4--4--4--4--4--4|-4--4--4--4--4--4--4--4|-3--3--3--3--3--3--3--3|-3--3--3--3--3--3--3--3| 
E|-----------------------|-----------------------|-----------------------|-----------------------| 
  Pulling me in, pulling me in over the hills, yeah 

Guitar 1 
  F5                      F5                      F#5                     F#5 
e|-----------------------|-----------------------|-----------------------|-----------------------| 
B|-----------------------|-----------------------|-----------------------|-----------------------| 
G|-----------------------|-----------------------|-----------------------|-----------------------| 
D|-------3--3--3--3--3--3|-3--3--3--3--3--3--3--3|-4--4--4--4--4--4--4--4|-4--4--4--4--4--4--4--4| 
A|-------3--3--3--3--3--3|-3--3--3--3--3--3--3--3|-4--4--4--4--4--4--4--4|-4--4--4--4--4--4--4--4| 
E|-------1--1--1--1--1--1|-1--1--1--1--1--1--1--1|-2--2--2--2--2--2--2--2|-2--2--2--2--2--2--2--2| 
  It seems like visions of kings and princess castles made of 

Guitar 1 
  C#5                     C#5                     G#/C                    G#/C 
e|-----------------------|-----------------------|-----------------------|-----------------------| 
B|-----------------------|-----------------------|-----------------------|-----------------------| 
G|-6--6--6--6--6--6--6--6|-6--6--6--6--6--6--6--6|-5--5--5--5--5--5--5--5|-5--5--5--5--5--5--5--5| 
D|-6--6--6--6--6--6--6--6|-6--6--6--6--6--6--6--6|-6--6--6--6--6--6--6--6|-6--6--6--6--6--6--6--6| 
A|-4--4--4--4--4--4--4--4|-4--4--4--4--4--4--4--4|-3--3--3--3--3--3--3--3|-3--3--3--3--3--3--3--3| 
E|-----------------------|-----------------------|-----------------------|-----------------------| 
  Clouds and rain, how do I stand still? Whoa oh 

Guitar 1 
  D#5                     D#5                     F#5                     F#5 
e|-----------------------|-----------------------|-----------------------|-----------------------| 
B|-----------------------|-----------------------|-----------------------|-----------------------| 
G|-----------------------|-----------------------|-----------------------|-----------------------| 
D|-------8--8--8--8--8--8|-8--8--8--8--8--8--8--8|-4--------4--------4---|(4)--------------------| 
A|-------6--6--6--6--6--6|-6--6--6--6--6--6--6--6|-4--------4--------4---|(4)--------------------| 
E|-------6--6--6--6--6--6|-6--6--6--6--6--6--6--6|-2--------2--------2---|(2)--------------------| 
  So many visions I have one voice 


Chorus 
Guitar 1 
  C#5                     C#5                     G#/C                    G#/C 
e|-----------------------|-----------------------|-----------------------|-----------------------| 
B|-----------------------|-----------------------|-----------------------|-----------------------| 
G|-6--6--6--6--6--6--6--6|-6--6--6--6--6--6--6--6|-5--5--5--5--5--5--5--5|-5--5--5--5--5--5--5--5| 
D|-6--6--6--6--6--6--6--6|-6--6--6--6--6--6--6--6|-6--6--6--6--6--6--6--6|-6--6--6--6--6--6--6--6| 
A|-4--4--4--4--4--4--4--4|-4--4--4--4--4--4--4--4|-3--3--3--3--3--3--3--3|-3--3--3--3--3--3--3--3| 
E|-----------------------|-----------------------|-----------------------|-----------------------| 
Guitar 2 
e|-----------------------|-----------------------|-----------------------|-----------------------| 
B|-----------------------|-----------------------|-----------------------|-----------------------| 
G|10-10-10-10-10-10-10-10|13-13-13-13-13-13-13-13|-9--9--9--9--9--9--9--9|-9--9--9--9--9--9--9--9| 
D|-x--x--x--x--x--x--x--x|-x--x--x--x--x--x--x--x|-x--x--x--x--x--x--x--x|-x--x--x--x--x--x--x--x| 
A|-8--8--8--8--8--8--8--8|11-11-11-11-11-11-11-11|-6--6--6--6--6--6--6--6|-6--6--6--6--6--6--6--6| 
E|-----------------------|-----------------------|-----------------------|-----------------------| 
  So where do I fit in and how do I get home from here? 

Guitar 1 
  F#5         G#5         G#5                     F#5         G#5         G#5 
e|-----------------------|-----------------------|-----------------------|-----------------------| 
B|-----------------------|-----------------------|-----------------------|-----------------------| 
G|-----------------------|-----------------------|-----------------------|-----------------------| 
D|-4-----4-----6---------|(6)--------------------|-4-----4-----6---------|(6)--------------------| 
A|-4-----4-----6---------|(6)--------------------|-4-----4-----6---------|(6)--------------------| 
E|-2-----2-----4---------|(4)--------------------|-2-----2-----4---------|(4)--------------------| 
Guitar 2 
e|-----------------------|-----------------------|-----------------------|-----------------------| 
B|-----------------------|-----------------------|-----------------------|-----------------------| 
G|11----11----13---------|(13)-------------------|11----15----13---------|(13)-------------------| 
D|-x-----x-----x---------|(-x)-------------------|-x-----x-----x---------|(-x)-------------------| 
A|-9-----9----11---------|(11)-------------------|-9----13----11---------|(11)-------------------| 
E|-----------------------|-----------------------|-----------------------|-----------------------| 
  Have I lost my way in the sky so gray? 

Guitar 1 
  C#5                     C#5                     G#/C                    G#/C 
e|-----------------------|-----------------------|-----------------------|-----------------------| 
B|-----------------------|-----------------------|-----------------------|-----------------------| 
G|-6--6--6--6--6--6--6--6|-6--6--6--6--6--6--6--6|-5--5--5--5--5--5--5--5|-5--5--5--5--5--5--5--5| 
D|-6--6--6--6--6--6--6--6|-6--6--6--6--6--6--6--6|-6--6--6--6--6--6--6--6|-6--6--6--6--6--6--6--6| 
A|-4--4--4--4--4--4--4--4|-4--4--4--4--4--4--4--4|-3--3--3--3--3--3--3--3|-3--3--3--3--3--3--3--3| 
E|-----------------------|-----------------------|-----------------------|-----------------------| 
Guitar 2 
e|-----------------------|-----------------------|-----------------------|-----------------------| 
B|-----------------------|-----------------------|-----------------------|-----------------------| 
G|10-10-10-10-10-10-10-10|13-13-13-13-13-13-13-13|-9--9--9--9--9--9--9--9|-9--9--9--9--9--9--9--9| 
D|-x--x--x--x--x--x--x--x|-x--x--x--x--x--x--x--x|-x--x--x--x--x--x--x--x|-x--x--x--x--x--x--x--x| 
A|-8--8--8--8--8--8--8--8|11-11-11-11-11-11-11-11|-6--6--6--6--6--6--6--6|-6--6--6--6--6--6--6--6| 
E|-----------------------|-----------------------|-----------------------|-----------------------| 
  So where do I fit in and how do I get home from here? 

Guitar 1 
  F#5         G#5         G#5                     F#5         G#5         G#5 
e|-----------------------|-----------------------|-----------------------|-----------------------| 
B|-----------------------|-----------------------|-----------------------|-----------------------| 
G|-----------------------|-----------------------|-----------------------|-----------------------| 
D|-4-----4-----6---------|(6)--------------------|-4-----4-----6---------|(6)--------------------| 
A|-4-----4-----6---------|(6)--------------------|-4-----4-----6---------|(6)--------------------| 
E|-2-----2-----4---------|(4)--------------------|-2-----2-----4---------|(4)--------------------| 
Guitar 2 
e|-----------------------|-----------------------|-----------------------|-----------------------| 
B|-----------------------|-----------------------|-----------------------|-----------------------| 
G|11----11----13---------|(13)-------------------|11----15----13---------|(13)-------------------| 
D|-x-----x-----x---------|(-x)-------------------|-x-----x-----x---------|(-x)-------------------| 
A|-9-----9----11---------|(11)-------------------|-9----13----11---------|(11)-------------------| 
E|-----------------------|-----------------------|-----------------------|-----------------------| 
  Have I lost my way in the sky so gray? 

Guitar 1 
  G#5 
e|-----------------------| 
B|-----------------------| 
G|-----------------------| 
D|-6---------------------| 
A|-6---------------------| 
E|-4---------------------|- 
Guitar 2 
e|-----------------------| 
B|-----------------------| 
G|13---------------------| 
D|-x---------------------| 
A|11---------------------| 
E|-----------------------| 
  Are you my beacon leading home? 


Fill 
Guitar 1 
e|-----------------------|-----------------------|-----------------------|-----------------------| 
B|14-14-14-13--x--x-14-14|14-13--x--x-14-16-16-16|14-14-14-13--x--x-14-14|14-13--x--x-14-16-16-16| 
G|13-13-13-13--x--x-13-13|13-13--x--x-13-13-13-13|13-13-13-13--x--x-13-13|13-13--x--x-13-13-13-13| 
D|-----------------------|-----------------------|-----------------------|-----------------------| 
A|-----------------------|-----------------------|-----------------------|-----------------------| 
E|-----------------------|-----------------------|-----------------------|-----------------------| 


Verse 
Guitar 1 
  F5                      F5                      F#5                     F#5 
e|-----------------------|-----------------------|-----------------------|-----------------------| 
B|-----------------------|-----------------------|-----------------------|-----------------------| 
G|-----------------------|-----------------------|-----------------------|-----------------------| 
D|-----------------------|-----------------------|-----------------------|-----------------------| 
A|-------3--3--3--3--3--3|-3--3--3--3--3--3--3--3|-4--4--4--4--4--4--4--4|-4--4--4--4--4--4--4--4| 
E|-------1--1--1--1--1--1|-1--1--1--1--1--1--1--1|-2--2--2--2--2--2--2--2|-2--2--2--2--2--2--2--2| 
      PM¦----------------------------------------------------------------------------------------¦ 
Guitar 2 
e|-----------------------|-----------------------|-----------------------|-----------------------| 
B|-----------------------|-----------------------|---11-------11-------11|---11-------11-------11| 
G|----8--------8--------8|----8--------8--------8|-8-----8--8-----8--8---|-8-----8--8-----8--8---| 
D|-------6--6-----6--6---|-6-----6--6-----6--6---|-----------------------|-----------------------| 
A|-----------------------|-----------------------|-----------------------|-----------------------| 
E|-----------------------|-----------------------|-----------------------|-----------------------| 
  Swimming the oceans I feel the rising tides 

Guitar 1 
  C#5                     C#5                     G#/C                    G#/C 
e|-----------------------|-----------------------|-----------------------|-----------------------| 
B|-----------------------|-----------------------|-----------------------|-----------------------| 
G|-------6--6--6--6--6--6|-6--6--6--6--6--6--6--6|-5--5--5--5--5--5--5--5|-5--5--5--5--5--5--5--5| 
D|-------6--6--6--6--6--6|-6--6--6--6--6--6--6--6|-6--6--6--6--6--6--6--6|-6--6--6--6--6--6--6--6| 
A|-------4--4--4--4--4--4|-4--4--4--4--4--4--4--4|-3--3--3--3--3--3--3--3|-3--3--3--3--3--3--3--3| 
E|-----------------------|-----------------------|-----------------------|-----------------------| 
  Pulling me in, pulling me in over the waves, yeah 

Guitar 1 
  F5                      F5                      F#5                     F#5 
e|-----------------------|-----------------------|-----------------------|-----------------------| 
B|-----------------------|-----------------------|-----------------------|-----------------------| 
G|-----------------------|-----------------------|-----------------------|-----------------------| 
D|-------3-----------3---|-------3-----------3---|-------4-----------4---|-------4--------4--4---| 
A|-3--3--3-----3--3--3---|-3--3--3-----3--3--3---|-4--4--4-----4--4--4---|-4--4--4-----4--4--4---| 
E|-1--1--1-----1--1--1---|-1--1--1-----1--1--1---|-2--2--2-----2--2--2---|-2--2--2-----2--2--2---| 
PM|----¦      ¦----¦      ¦----¦      ¦----¦      ¦----¦      ¦----¦      ¦----¦      ¦-¦ 
  Looking for answers inside a grain of sand 

Guitar 1 
  C#5                     C#5                     G#/C                    G#/C 
e|-----------------------|-----------------------|-----------------------|-----------------------| 
B|-----------------------|-----------------------|-----------------------|-----------------------| 
G|-6--6--6--6--6--6--6--6|-6--6--6--6--6--6--6--6|-5--5--5--5--5--5--5--5|-5--5--5--5--5--5--5--5| 
D|-6--6--6--6--6--6--6--6|-6--6--6--6--6--6--6--6|-6--6--6--6--6--6--6--6|-6--6--6--6--6--6--6--6| 
A|-4--4--4--4--4--4--4--4|-4--4--4--4--4--4--4--4|-3--3--3--3--3--3--3--3|-3--3--3--3--3--3--3--3| 
E|-----------------------|-----------------------|-----------------------|-----------------------| 
  Washing away, washing away, clearing my mind, whoa oh 

Guitar 1 
  D#5                     D#5                     F#5                     F#5 
e|-----------------------|-----------------------|-----------------------|-----------------------| 
B|-----------------------|-----------------------|-----------------------|-----------------------| 
G|-----------------------|-----------------------|-----------------------|-----------------------| 
D|-------8--8--8--8--8--8|-8--8--8--8--8--8--8--8|-4--------4--------4---|(4)--------------------| 
A|-------6--6--6--6--6--6|-6--6--6--6--6--6--6--6|-4--------4--------4---|(4)--------------------| 
E|-------6--6--6--6--6--6|-6--6--6--6--6--6--6--6|-2--------2--------2---|(2)--------------------| 
So many visions I have one voice 


Chorus 
Guitar 1 
  C#5                     C#5                     G#/C                    G#/C 
e|-----------------------|-----------------------|-----------------------|-----------------------| 
B|-----------------------|-----------------------|-----------------------|-----------------------| 
G|-6--6--6--6--6--6--6--6|-6--6--6--6--6--6--6--6|-5--5--5--5--5--5--5--5|-5--5--5--5--5--5--5--5| 
D|-6--6--6--6--6--6--6--6|-6--6--6--6--6--6--6--6|-6--6--6--6--6--6--6--6|-6--6--6--6--6--6--6--6| 
A|-4--4--4--4--4--4--4--4|-4--4--4--4--4--4--4--4|-3--3--3--3--3--3--3--3|-3--3--3--3--3--3--3--3| 
E|-----------------------|-----------------------|-----------------------|-----------------------| 
Guitar 2 
e|-----------------------|-----------------------|-----------------------|-----------------------| 
B|-----------------------|-----------------------|-----------------------|-----------------------| 
G|10-10-10-10-10-10-10-10|13-13-13-13-13-13-13-13|-9--9--9--9--9--9--9--9|-9--9--9--9--9--9--9--9| 
D|-x--x--x--x--x--x--x--x|-x--x--x--x--x--x--x--x|-x--x--x--x--x--x--x--x|-x--x--x--x--x--x--x--x| 
A|-8--8--8--8--8--8--8--8|11-11-11-11-11-11-11-11|-6--6--6--6--6--6--6--6|-6--6--6--6--6--6--6--6| 
E|-----------------------|-----------------------|-----------------------|-----------------------| 
  So where do I fit in and how do I get home from here? 

Guitar 1 
  F#5         G#5         G#5                     F#5         G#5         G#5 
e|-----------------------|-----------------------|-----------------------|-----------------------| 
B|-----------------------|-----------------------|-----------------------|-----------------------| 
G|-----------------------|-----------------------|-----------------------|-----------------------| 
D|-4-----4-----6---------|(6)--------------------|-4-----4-----6---------|(6)--------------------| 
A|-4-----4-----6---------|(6)--------------------|-4-----4-----6---------|(6)--------------------| 
E|-2-----2-----4---------|(4)--------------------|-2-----2-----4---------|(4)--------------------| 
Guitar 2 
e|-----------------------|-----------------------|-----------------------|-----------------------| 
B|-----------------------|-----------------------|-----------------------|-----------------------| 
G|11----11----13---------|(13)-------------------|11----15----13---------|(13)-------------------| 
D|-x-----x-----x---------|(-x)-------------------|-x-----x-----x---------|(-x)-------------------| 
A|-9-----9----11---------|(11)-------------------|-9----13----11---------|(11)-------------------| 
E|-----------------------|-----------------------|-----------------------|-----------------------| 
  Have I lost my way in the sky so gray? 

Guitar 1 
  C#5                     C#5                     G#/C                    G#/C 
e|-----------------------|-----------------------|-----------------------|-----------------------| 
B|-----------------------|-----------------------|-----------------------|-----------------------| 
G|-6--6--6--6--6--6--6--6|-6--6--6--6--6--6--6--6|-5--5--5--5--5--5--5--5|-5--5--5--5--5--5--5--5| 
D|-6--6--6--6--6--6--6--6|-6--6--6--6--6--6--6--6|-6--6--6--6--6--6--6--6|-6--6--6--6--6--6--6--6| 
A|-4--4--4--4--4--4--4--4|-4--4--4--4--4--4--4--4|-3--3--3--3--3--3--3--3|-3--3--3--3--3--3--3--3| 
E|-----------------------|-----------------------|-----------------------|-----------------------| 
Guitar 2 
e|-----------------------|-----------------------|-----------------------|-----------------------| 
B|-----------------------|-----------------------|-----------------------|-----------------------| 
G|10-10-10-10-10-10-10-10|13-13-13-13-13-13-13-13|-9--9--9--9--9--9--9--9|-9--9--9--9--9--9--9--9| 
D|-x--x--x--x--x--x--x--x|-x--x--x--x--x--x--x--x|-x--x--x--x--x--x--x--x|-x--x--x--x--x--x--x--x| 
A|-8--8--8--8--8--8--8--8|11-11-11-11-11-11-11-11|-6--6--6--6--6--6--6--6|-6--6--6--6--6--6--6--6| 
E|-----------------------|-----------------------|-----------------------|-----------------------| 
  So where do I fit in and how do I get home from here? 

Guitar 1 
  F#5         G#5         G#5                     F#5         G#5         G#5 
e|-----------------------|-----------------------|-----------------------|-----------------------| 
B|-----------------------|-----------------------|-----------------------|-----------------------| 
G|-----------------------|-----------------------|-----------------------|-----------------------| 
D|-4-----4-----6---------|(6)--------------------|-4-----4-----6---------|(6)--------------------| 
A|-4-----4-----6---------|(6)--------------------|-4-----4-----6---------|(6)--------------------| 
E|-2-----2-----4---------|(4)--------------------|-2-----2-----4---------|(4)--------------------| 
Guitar 2 
e|-----------------------|-----------------------|-----------------------|-----------------------| 
B|-----------------------|-----------------------|-----------------------|-----------------------| 
G|11----11----13---------|(13)-------------------|11----15----13---------|(13)-------------------| 
D|-x-----x-----x---------|(-x)-------------------|-x-----x-----x---------|(-x)-------------------| 
A|-9-----9----11---------|(11)-------------------|-9----13----11---------|(11)-------------------| 
E|-----------------------|-----------------------|-----------------------|-----------------------| 
  Have I lost my way in the sky so gray? 

Guitar 1 
  G#5 
e|-----------------------| 
B|-----------------------| 
G|-----------------------| 
D|-6---------------------| 
A|-6---------------------| 
E|-4---------------------|- 
Guitar 2 
e|-----------------------| 
B|-----------------------| 
G|13---------------------| 
D|-x---------------------| 
A|11---------------------| 
E|-----------------------| 
  Are you my beacon leading home? 

Bridge 
Guitar 1 
  C#                      C#                      F                       F 
e|-----------------------|-----------------------|-----------------------|-----------------------| 
B|-x--x--6-----x--x--6---|-x--x--6-----x--x--6---|-x--x--6-----x--x--6---|-x--x--6-----x--x--6---| 
G|-x--x--6-----x--x--6---|-x--x--6-----x--x--6---|-x--x--5-----x--x--5---|-x--x--5-----x--x--5---| 
D|-x--x--6-----x--x--6---|-x--x--6-----x--x--6---|-x--x--3-----x--x--3---|-x--x--3-----x--x--3---| 
A|-----------------------|-----------------------|-----------------------|-----------------------| 
E|-----------------------|-----------------------|-----------------------|-----------------------| 
  I raise my hand, I raise my voice 

Guitar 1 
  F#5                     F#5                     C#5                     G#/C 
e|-----------------------|-----------------------|-----------------------|-----------------------| 
B|-----------------------|-----------------------|-----------------------|-----------------------| 
G|-----------------------|-----------------------|-6-----6-----6--6--6--6|-6----6---6-----6--6---| 
D|-4--4--4--4--4--4--4--4|-4--4--4--4--4--4--4--4|-6-----6-----6--6--6--6|-5----5---5-----5--5---| 
A|-4--4--4--4--4--4--4--4|-4--4--4--4--4--4--4--4|-4-----4-----4--4--4--4|-3----3---3-----3--3---| 
E|-2--2--2--2--2--2--2--2|-2--2--2--2--2--2--2--2|-----------------------|-----------------------| 
  To anyone who ever follows dreams 

Guitar 1 
  C#                      C#                      F                       F 
e|-----------------------|-----------------------|-----------------------|-----------------------| 
B|-x--x--6-----x--x--6---|-x--x--6-----x--x--6---|-x--x--6-----x--x--6---|-x--x--6-----x--x--6---| 
G|-x--x--6-----x--x--6---|-x--x--6-----x--x--6---|-x--x--5-----x--x--5---|-x--x--5-----x--x--5---| 
D|-x--x--6-----x--x--6---|-x--x--6-----x--x--6---|-x--x--3-----x--x--3---|-x--x--3-----x--x--3---| 
A|-----------------------|-----------------------|-----------------------|-----------------------| 
E|-----------------------|-----------------------|-----------------------|-----------------------| 
  I took a stand, I made a choice 

Guitar 1 
  F#5                     F#5                     C#5                     G#/C 
e|-----------------------|-----------------------|-----------------------|-----------------------| 
B|-----------------------|-----------------------|-----------------------|-----------------------| 
G|-----------------------|-----------------------|-6-----6-----6--6--6--6|-6----6---6-----6--6---| 
D|-4--4--4--4--4--4--4--4|-4--4--4--4--4--4--4--4|-6-----6-----6--6--6--6|-5----5---5-----5--5---| 
A|-4--4--4--4--4--4--4--4|-4--4--4--4--4--4--4--4|-4-----4-----4--4--4--4|-3----3---3-----3--3---| 
E|-2--2--2--2--2--2--2--2|-2--2--2--2--2--2--2--2|-----------------------|-----------------------| 
  To take the road less traveled in-between 

Guitar 1 
  B5                      B5                      B5                      B5 
e|-----------------------|-----------------------|-----------------------|-----------------------| 
B|-----------------------|-----------------------|-----------------------|-----------------------| 
G|-4--4--4--4--4--4--4--4|-4--4--4--4--4--4--4--4|-4--4--4--4--4--4--4--4|-4--4--4--4--4--4--4--4| 
D|-4--4--4--4--4--4--4--4|-4--4--4--4--4--4--4--4|-4--4--4--4--4--4--4--4|-4--4--4--4--4--4--4--4| 
A|-2--2--2--2--2--2--2--2|-2--2--2--2--2--2--2--2|-2--2--2--2--2--2--2--2|-2--2--2--2--2--2--2--2| 
E|-----------------------|-----------------------|-----------------------|-----------------------| 
  So hold on tight this crazy life 

Fill 
Guitar 1 
  C#5                     C#5                     G#5                     G#5 
e|-----------------------|-----------------------|-----------------------|-----------------------| 
B|-----------------------|-----------------------|-----------------------|-----------------------| 
G|-6--6--6--6--6--6--6--6|-6--6--6--6--6--6--6--6|-----------------------|-----------------------| 
D|-6--6--6--6--6--6--6--6|-6--6--6--6--6--6--6--6|-6--6--6--6--6--6--6--6|-6--6--6--6--6--6--6--6| 
A|-4--4--4--4--4--4--4--4|-4--4--4--4--4--4--4--4|-6--6--6--6--6--6--6--6|-6--6--6--6--6--6--6--6| 
E|-----------------------|-----------------------|-4--4--4--4--4--4--4--4|-4--4--4--4--4--4--4--4| 
  Guitar 2 
e|-----------------------|-----------------------|-----------------------|-----------------------| 
B|14-14-14-13--x--x-14-14|14-13--x--x-14-16-16-16|14-14-14-13--x--x-14-14|14-13--x--x-14-16-16-16| 
G|13-13-13-13--x--x-13-13|13-13--x--x-13-13-13-13|13-13-13-13--x--x-13-13|13-13--x--x-13-13-13-13| 
D|-----------------------|-----------------------|-----------------------|-----------------------| 
A|-----------------------|-----------------------|-----------------------|-----------------------| 
E|-----------------------|-----------------------|-----------------------|-----------------------| 

Guitar 1 
  C#5                     C#5                     G#5                     G#5 
e|-----------------------|-----------------------|-----------------------|-----------------------| 
B|-----------------------|-----------------------|-----------------------|-----------------------| 
G|-----------------------|-----------------------|-----------------------|-----------------------| 
D|-3--3--3--3--3--3--3--3|-3--3--3--3--3--3--3--3|-4--4--4--4--4--4--4--4|-4--4--4--4--4--4--4--4| 
A|-3--3--3--3--3--3--3--3|-3--3--3--3--3--3--3--3|-4--4--4--4--4--4--4--4|-4--4--4--4--4--4--4--4| 
E|-1--1--1--1--1--1--1--1|-1--1--1--1--1--1--1--1|-2--2--2--2--2--2--2--2|-2--2--2--2--2--2--2--2| 
  Guitar 2 
e|-----------------------|-----------------------|-----------------------|-----------------------| 
B|14-14-14-13--x--x-14-14|14-13--x--x-14-16-16-16|14-14-14-13--x--x-14-14|14-13--x--x-14-16-16-16| 
G|13-13-13-13--x--x-13-13|13-13--x--x-13-13-13-13|13-13-13-13--x--x-13-13|13-13--x--x-13-13-13-13| 
D|-----------------------|-----------------------|-----------------------|-----------------------| 
A|-----------------------|-----------------------|-----------------------|-----------------------| 
E|-----------------------|-----------------------|-----------------------|-----------------------| 


Chorus 
Guitar 1 
  C#5                     C#5                     G#/C                    G#/C 
e|-----------------------|-----------------------|-----------------------|-----------------------| 
B|-----------------------|-----------------------|-----------------------|-----------------------| 
G|-6---------------------|(6)--------------------|-5---------------------|(5)--------------------| 
D|-6---------------------|(6)--------------------|-6---------------------|(6)--------------------| 
A|-4---------------------|(4)--------------------|-3---------------------|(3)--------------------| 
E|-----------------------|-----------------------|-----------------------|-----------------------| 
  So where do I fit in and how do I get home from here? 

Guitar 1 
  F#5         G#5         G#5                     F#5         G#5         G#5 
e|-----------------------|-----------------------|-----------------------|-----------------------| 
B|-----------------------|-----------------------|-----------------------|-----------------------| 
G|-----------------------|-----------------------|-----------------------|-----------------------| 
D|-4-----4-----6---------|(6)--------------------|-4-----4-----6---------|(6)--------------------| 
A|-4-----4-----6---------|(6)--------------------|-4-----4-----6---------|(6)--------------------| 
E|-2-----2-----4---------|(4)--------------------|-2-----2-----4---------|(4)--------------------| 
Guitar 2 
e|-----------------------|-----------------------|-----------------------|-----------------------| 
B|-----------------------|-----------------------|-----------------------|-----------------------| 
G|11----11----13---------|(13)-------------------|11----15----13---------|(13)-------------------| 
D|-x-----x-----x---------|(-x)-------------------|-x-----x-----x---------|(-x)-------------------| 
A|-9-----9----11---------|(11)-------------------|-9----13----11---------|(11)-------------------| 
E|-----------------------|-----------------------|-----------------------|-----------------------| 
  Have I lost my way in the sky so gray? 

Guitar 1 
  C#5                     C#5                     G#/C                    G#/C 
e|-----------------------|-----------------------|-----------------------|-----------------------| 
B|-----------------------|-----------------------|-----------------------|-----------------------| 
G|-6--6--6--6--6--6--6--6|-6--6--6--6--6--6--6--6|-5--5--5--5--5--5--5--5|-5--5--5--5--5--5--5--5| 
D|-6--6--6--6--6--6--6--6|-6--6--6--6--6--6--6--6|-6--6--6--6--6--6--6--6|-6--6--6--6--6--6--6--6| 
A|-4--4--4--4--4--4--4--4|-4--4--4--4--4--4--4--4|-3--3--3--3--3--3--3--3|-3--3--3--3--3--3--3--3| 
E|-----------------------|-----------------------|-----------------------|-----------------------| 
Guitar 2 
e|-----------------------|-----------------------|-----------------------|-----------------------| 
B|-----------------------|-----------------------|-----------------------|-----------------------| 
G|10-10-10-10-10-10-10-10|13-13-13-13-13-13-13-13|-9--9--9--9--9--9--9--9|-9--9--9--9--9--9--9--9| 
D|-x--x--x--x--x--x--x--x|-x--x--x--x--x--x--x--x|-x--x--x--x--x--x--x--x|-x--x--x--x--x--x--x--x| 
A|-8--8--8--8--8--8--8--8|11-11-11-11-11-11-11-11|-6--6--6--6--6--6--6--6|-6--6--6--6--6--6--6--6| 
E|-----------------------|-----------------------|-----------------------|-----------------------| 
  So where do I fit in and how do I get home from here? 

Guitar 1 
  F#5         G#5         G#5                     F#5         G#5         G#5 
  11 ++ 22 ++ 33 ++ 44 ++ 11 ++ 22 ++ 33 ++ 44 ++ 11 ++ 22 ++ 33 ++ 44 ++ 11 ++ 22 ++ 33 ++ 44 ++ 
e|-----------------------|-----------------------|-----------------------|-----------------------| 
B|-----------------------|-----------------------|-----------------------|-----------------------| 
G|-----------------------|-----------------------|-----------------------|-----------------------| 
D|-4-----4-----6---------|(6)--------------------|-4-----4-----6---------|(6)----6-----6-----6---| 
A|-4-----4-----6---------|(6)--------------------|-4-----4-----6---------|(6)----6-----6-----6---| 
E|-2-----2-----4---------|(4)--------------------|-2-----2-----4---------|(4)----4-----4-----4---| 
Guitar 2 
e|-----------------------|-----------------------|-----------------------|-----------------------| 
B|-----------------------|-----------------------|-----------------------|-----------------------| 
G|11----11----13---------|(13)-------------------|11----15----13---------|(13)--13----13----13---| 
D|-x-----x-----x---------|(-x)-------------------|-x-----x-----x---------|(-x)---x-----x-----x---| 
A|-9-----9----11---------|(11)-------------------|-9----13----11---------|(11)--11----11----11---| 
E|-----------------------|-----------------------|-----------------------|-----------------------| 
  Have I lost my way in the sky so gray? 

Guitar 1 
  G#5 
e|-----------------------| 
B|-----------------------| 
G|-----------------------| 
D|-6---------------------| 
A|-6---------------------| 
E|-4---------------------|- 
Guitar 2 
e|-----------------------| 
B|-----------------------| 
G|13---------------------| 
D|-x---------------------| 
A|11---------------------| 
E|-----------------------| 
  Are you my beacon leading home? 

Outro 
Guitar 1 
  C#5                     C#5                     G#5                     G#5 
e|-----------------------|-----------------------|-----------------------|-----------------------| 
B|-----------------------|-----------------------|-----------------------|-----------------------| 
G|-6--6--6--6--6--6--6--6|-6--6--6--6--6--6--6--6|-----------------------|-----------------------| 
D|-6--6--6--6--6--6--6--6|-6--6--6--6--6--6--6--6|-6--6--6--6--6--6--6--6|-6--6--6--6--6--6--6--6| 
A|-4--4--4--4--4--4--4--4|-4--4--4--4--4--4--4--4|-6--6--6--6--6--6--6--6|-6--6--6--6--6--6--6--6| 
E|-----------------------|-----------------------|-4--4--4--4--4--4--4--4|-4--4--4--4--4--4--4--4| 
  Guitar 2 
e|-----------------------|-----------------------|-----------------------|-----------------------| 
B|14-14-14-13--x--x-14-14|14-13--x--x-14-16-16-16|14-14-14-13--x--x-14-14|14-13--x--x-14-16-16-16| 
G|13-13-13-13--x--x-13-13|13-13--x--x-13-13-13-13|13-13-13-13--x--x-13-13|13-13--x--x-13-13-13-13| 
D|-----------------------|-----------------------|-----------------------|-----------------------| 
A|-----------------------|-----------------------|-----------------------|-----------------------| 
E|-----------------------|-----------------------|-----------------------|-----------------------| 

Guitar 1 
  C#5                     C#5                     G#5                     G#5 
e|-----------------------|-----------------------|-----------------------|-----------------------| 
B|-----------------------|-----------------------|-----------------------|-----------------------| 
G|-----------------------|-----------------------|-----------------------|-----------------------| 
D|-3--3--3--3--3--3--3--3|-3--3--3--3--3--3--3--3|-4--4--4--4--4--4--4--4|-4--4--4--4--4--4--4--4| 
A|-3--3--3--3--3--3--3--3|-3--3--3--3--3--3--3--3|-4--4--4--4--4--4--4--4|-4--4--4--4--4--4--4--4| 
E|-1--1--1--1--1--1--1--1|-1--1--1--1--1--1--1--1|-2--2--2--2--2--2--2--2|-2--2--2--2--2--2--2--2| 
  Guitar 2 
e|-----------------------|-----------------------|-----------------------|-----------------------| 
B|14-14-14-13--x--x-14-14|14-13--x--x-14-16-16-16|14-14-14-13--x--x-14-14|14-13--x--x-14-16-16-16| 
G|13-13-13-13--x--x-13-13|13-13--x--x-13-13-13-13|13-13-13-13--x--x-13-13|13-13--x--x-13-13-13-13| 
D|-----------------------|-----------------------|-----------------------|-----------------------| 
A|-----------------------|-----------------------|-----------------------|-----------------------| 
E|-----------------------|-----------------------|-----------------------|-----------------------| 


Guitar 1 
  C# 
e|-----------------------| 
B|-----------------------| 
G|-6--6\-----------------| 
D|-6--6\-----------------| 
A|-4--4\-----------------| 
E|-----------------------| 
Guitar 2 
e|-----------------------| 
B|14-14\-----------------| 
G|13-13\-----------------| 
D|11-11\-----------------| 
A|11-11\-----------------| 
E|-----------------------| 

*********************************** 

| x   Dead note 
| p   Pull off 
| h   Hammer on 
| /   Slide up 
| \   Slide down 
| .   Cut off/Staccato (above note) 
| (n) Ghost note 

*********************************** 
  

cifra enviadasem correções
enviado porenviada por:terr_schmitz
top 5 | goldfinger
top punk rock
Outras músicas do artista letras do(a) Goldfinger
Top cifras »Top artistas »
Petaxxon Comunicação Online
Cifras.com.br - Melhor e mais completo site de cifras e tablaturas do Brasil
Mais de 1 milhão de acordes de músicas cadastradas desde 2003
As informações contidas no nosso site são colaborações de seus usuários e podem conter erros, sendo assim, não nos responsabilizamos sobre nenhuma destas.
close
menos
mais
close
Cor dos acordes:

Cor da letra:

 

save
close
close
 
redimensionar