Cifras e Tablaturas
Goldfinger

Goldfinger

Liftoff

Cifras Cancelar Versão de Impressão
cifras

Goldfinger - Liftoff

fixar na tela  
Exibindo: vídeo-aula ver clipes redimensionar

Tom:

C

ver outros tons
  
Intro 
Piano (Transcribed for guitar) 
  C                       C                       C                       C 
e|-----------------------|-----------------------|-----------------------|-----------------------| 
B|-5-----------------5---|-------5--------5------|-5-----------------5---|-------5--------5------| 
G|-5-----------------5---|-------5--------5------|-5-----------------5---|-------5--------5------| 
D|-5-----------------5---|-------5--------5------|-5-----------------5---|-------5--------5------| 
A|-3-----------------3---|-------3--------3------|-3-----------------3---|-------3--------3------| 
E|-----------------------|-----------------------|-----------------------|-----------------------| 

verse 1 
  C                       C                       G                       G 
e|-----------------------|-----------------------|-----------------------|-----------------------| 
B|-x--x--5--5--x--x--5--5|-x--x--5--5--x--x--5--5|-x--x--3--3--x--x--3--3|-x--x--3--3--x--x--3--3| 
G|-x--x--5--5--x--x--5--5|-x--x--5--5--x--x--5--5|-x--x--4--4--x--x--4--4|-x--x--4--4--x--x--4--4| 
D|-x--x--5--5--x--x--5--5|-x--x--5--5--x--x--5--5|-x--x--5--5--x--x--5--5|-x--x--5--5--x--x--5--5| 
A|-----------------------|-----------------------|-----------------------|-----------------------| 
E|-----------------------|-----------------------|-----------------------|-----------------------| 
  It's time for lift off, I've been holding on to the floor 

  Dm                      Dm                      F                       F 
e|-----------------------|-----------------------|-----------------------|-----------------------| 
B|-x--x--6--6--x--x--6--6|-x--x--6--6--x--x--6--6|-x--x--6--6--x--x--6--6|-x--x--6--6--x--x--6--6| 
G|-x--x--7--7--x--x--7--7|-x--x--7--7--x--x--7--7|-x--x--5--5--x--x--5--5|-x--x--5--5--x--x--5--5| 
D|-x--x--7--7--x--x--7--7|-x--x--7--7--x--x--7--7|-x--x--3--3--x--x--3--3|-x--x--3--3--x--x--3--3| 
A|-----------------------|-----------------------|-----------------------|-----------------------| 
E|-----------------------|-----------------------|-----------------------|-----------------------| 
  Everybody's come to watch the show, everybody's come to watch me fall 

  C                       C                       G                       G 
e|-----------------------|-----------------------|-----------------------|-----------------------| 
B|-x--x--5--5--x--x--5--5|-x--x--5--5--x--x--5--5|-x--x--3--3--x--x--3--3|-x--x--3--3--x--x--3--3| 
G|-x--x--5--5--x--x--5--5|-x--x--5--5--x--x--5--5|-x--x--4--4--x--x--4--4|-x--x--4--4--x--x--4--4| 
D|-x--x--5--5--x--x--5--5|-x--x--5--5--x--x--5--5|-x--x--5--5--x--x--5--5|-x--x--5--5--x--x--5--5| 
A|-----------------------|-----------------------|-----------------------|-----------------------| 
E|-----------------------|-----------------------|-----------------------|-----------------------| 
  It's time for lift off, I've been holding on to the floor 

  Dm                      Dm                      F                       F 
e|-----------------------|-----------------------|-----------------------|-----------------------| 
B|-x--x--6--6--x--x--6--6|-x--x--6--6--x--x--6--6|-x--x--6--6--x--x--6--6|-x--x--6--6--x--x--6--6| 
G|-x--x--7--7--x--x--7--7|-x--x--7--7--x--x--7--7|-x--x--5--5--x--x--5--5|-x--x--5--5--x--x--5--5| 
D|-x--x--7--7--x--x--7--7|-x--x--7--7--x--x--7--7|-x--x--3--3--x--x--3--3|-x--x--3--3--x--x--3--3| 
A|-----------------------|-----------------------|-----------------------|-----------------------| 
E|-----------------------|-----------------------|-----------------------|-----------------------| 
  Everybody stands up to watch me fall, watch me fall 

Pre-Chorus 
  Am                      G                       F                       F 
e|-0---------------------|-3---------------------|-1---------------------|(1)--------------------| 
B|-1---------------------|-3---------------------|-1---------------------|(1)--------------------| 
G|-2---------------------|-0---------------------|-2---------------------|(2)--------------------| 
D|-2---------------------|-0---------------------|-3---------------------|(3)--------------------| 
A|-0---------------------|-2---------------------|-3---------------------|(3)--------------------| 
E|-----------------------|-3---------------------|-1---------------------|(1)--------------------| 
  There's no such thing as gravity 

  Am                      G                       F                       F 
e|-0---------------------|-3---------------------|-1---------------------|-----------------------| 
B|-1---------------------|-3---------------------|-1---------------------|-----------------------| 
G|-2---------------------|-0---------------------|-2---------------------|-2--2--2--2--2--2--2--2| 
D|-2---------------------|-0---------------------|-3---------------------|-3--3--3--3--3--3--3--3| 
A|-0---------------------|-2---------------------|-3---------------------|-3--3--3--3--3--3--3--3| 
E|-----------------------|-3---------------------|-1---------------------|-1--1--1--1--1--1--1--1| 
  Yeah, there's no such thing as gravity 

Chorus 
  C                       C                       Em                      Em 
e|-----------------------|-----------------------|-----------------------|-----------------------| 
B|-x--x--5--5--x--x--5--5|-x--x--5--5--x--x--5--5|-x--x--8--8--x--x--8--8|-x--x--8--8--x--x--8--8| 
G|-x--x--5--5--x--x--5--5|-x--x--5--5--x--x--5--5|-x--x--9--9--x--x--9--9|-x--x--9--9--x--x--9--9| 
D|-x--x--5--5--x--x--5--5|-x--x--5--5--x--x--5--5|-x--x--9--9--x--x--9--9|-x--x--9--9--x--x--9--9| 
A|-----------------------|-----------------------|-----------------------|-----------------------| 
E|-----------------------|-----------------------|-----------------------|-----------------------| 
  We got five seconds til the end of the world. Forever, I'ma find that girl 

  Am                      G                       F                       F 
e|-----------------------|-----------------------|-----------------------|-----------------------| 
B|-x--x-10-10--x--x-10-10|-x--x--8--8--x--x--8--8|-x--x--6--6--x--x--6--6|-x--x--6--6--x--x--6--6| 
G|-x--x--9--9--x--x--9--9|-x--x--7--7--x--x--7--7|-x--x--5--5--x--x--5--5|-x--x--5--5--x--x--5--5| 
D|-x--x--7--7--x--x--7--7|-x--x--5--5--x--x--5--5|-x--x--3--3--x--x--3--3|-x--x--3--3--x--x--3--3| 
A|-----------------------|-----------------------|-----------------------|-----------------------| 
E|-----------------------|-----------------------|-----------------------|-----------------------| 
  Three, two, one, yeah we got lift off 

  C                       C                       Em                      Em 
e|-----------------------|-----------------------|-----------------------|-----------------------| 
B|-x--x--5--5--x--x--5--5|-x--x--5--5--x--x--5--5|-x--x--8--8--x--x--8--8|-x--x--8--8--x--x--8--8| 
G|-x--x--5--5--x--x--5--5|-x--x--5--5--x--x--5--5|-x--x--9--9--x--x--9--9|-x--x--9--9--x--x--9--9| 
D|-x--x--5--5--x--x--5--5|-x--x--5--5--x--x--5--5|-x--x--9--9--x--x--9--9|-x--x--9--9--x--x--9--9| 
A|-----------------------|-----------------------|-----------------------|-----------------------| 
E|-----------------------|-----------------------|-----------------------|-----------------------| 
  We got five seconds til the end of the world. Forever, I'ma find that girl 

  Am                      G                       F                       F 
e|-----------------------|-----------------------|-----------------------|-----------------------| 
B|-x--x-10-10--x--x-10-10|-x--x--8--8--x--x--8--8|-x--x--6--6--x--x--6--6|-x--x--6--6--x--x--6--6| 
G|-x--x--9--9--x--x--9--9|-x--x--7--7--x--x--7--7|-x--x--5--5--x--x--5--5|-x--x--5--5--x--x--5--5| 
D|-x--x--7--7--x--x--7--7|-x--x--5--5--x--x--5--5|-x--x--3--3--x--x--3--3|-x--x--3--3--x--x--3--3| 
A|-----------------------|-----------------------|-----------------------|-----------------------| 
E|-----------------------|-----------------------|-----------------------|-----------------------| 
  Three, two, one, yeah we got lift off 

Post-Chorus 
Piano (Transcribed for guitar) 
  C                       C                       C                       C 
e|-----------------------|-----------------------|-----------------------|-----------------------| 
B|-5-----------------5---|-------5--------5------|-5-----------------5---|-------5--------5------| 
G|-5-----------------5---|-------5--------5------|-5-----------------5---|-------5--------5------| 
D|-5-----------------5---|-------5--------5------|-5-----------------5---|-------5--------5------| 
A|-3-----------------3---|-------3--------3------|-3-----------------3---|-------3--------3------| 
E|-----------------------|-----------------------|-----------------------|-----------------------| 
We got lift off, hey, hey. We got lift off, hey, hey 

verse 2 
  C                       C                       G                       G 
e|-----------------------|-----------------------|-----------------------|-----------------------| 
B|-x--x--5--5--x--x--5--5|-x--x--5--5--x--x--5--5|-x--x--3--3--x--x--3--3|-x--x--3--3--x--x--3--3| 
G|-x--x--5--5--x--x--5--5|-x--x--5--5--x--x--5--5|-x--x--4--4--x--x--4--4|-x--x--4--4--x--x--4--4| 
D|-x--x--5--5--x--x--5--5|-x--x--5--5--x--x--5--5|-x--x--5--5--x--x--5--5|-x--x--5--5--x--x--5--5| 
A|-----------------------|-----------------------|-----------------------|-----------------------| 
E|-----------------------|-----------------------|-----------------------|-----------------------| 
  Bound for glory, I'll go down with the ship. Break on through yeah, I'll take the hit 

  Dm                      Dm                      NC                      NC 
e|-----------------------|-----------------------|-----------------------|-----------------------| 
B|-x--x--6--6--x--x--6--6|-x--x--6--6--x--x--6--6|-----------------------|-----------------------| 
G|-x--x--7--7--x--x--7--7|-x--x--7--7--x--x--7--7|-----------------------|-----------------------| 
D|-x--x--7--7--x--x--7--7|-x--x--7--7--x--x--7--7|-----------------------|-----------------------| 
A|-----------------------|-----------------------|-----------------------|-----------------------| 
E|-----------------------|-----------------------|-----------------------|-----------------------| 
  I got my mission and I'm brave to commit. Cause there's got to be more to life than just this 

  C                       C                       G                       G 
e|-----------------------|-----------------------|-----------------------|-----------------------| 
B|-x--x--5--5--x--x--5--5|-x--x--5--5--x--x--5--5|-x--x--3--3--x--x--3--3|-x--x--3--3--x--x--3--3| 
G|-x--x--5--5--x--x--5--5|-x--x--5--5--x--x--5--5|-x--x--4--4--x--x--4--4|-x--x--4--4--x--x--4--4| 
D|-x--x--5--5--x--x--5--5|-x--x--5--5--x--x--5--5|-x--x--5--5--x--x--5--5|-x--x--5--5--x--x--5--5| 
A|-----------------------|-----------------------|-----------------------|-----------------------| 
E|-----------------------|-----------------------|-----------------------|-----------------------| 
  We've got ten commandments, nine I agree with. Eight which to say, seven continents need this 

  Dm                      Dm                      F                       F 
e|-----------------------|-----------------------|-----------------------|-----------------------| 
B|-x--x--6--6--x--x--6--6|-x--x--6--6--x--x--6--6|-x--x--6--6--x--x--6--6|-x--x--6--6--x--x--6--6| 
G|-x--x--7--7--x--x--7--7|-x--x--7--7--x--x--7--7|-x--x--5--5--x--x--5--5|-x--x--5--5--x--x--5--5| 
D|-x--x--7--7--x--x--7--7|-x--x--7--7--x--x--7--7|-x--x--3--3--x--x--3--3|-x--x--3--3--x--x--3--3| 
A|-----------------------|-----------------------|-----------------------|-----------------------| 
E|-----------------------|-----------------------|-----------------------|-----------------------| 
  Basics, five seconds to find there. Before I'm free to wonder why 

Pre-Chorus 
  Am                      G                       F                       F 
e|-0---------------------|-3---------------------|-1---------------------|(1)--------------------| 
B|-1---------------------|-3---------------------|-1---------------------|(1)--------------------| 
G|-2---------------------|-0---------------------|-2---------------------|(2)--------------------| 
D|-2---------------------|-0---------------------|-3---------------------|(3)--------------------| 
A|-0---------------------|-2---------------------|-3---------------------|(3)--------------------| 
E|-----------------------|-3---------------------|-1---------------------|(1)--------------------| 
  There's no such thing as gravity 

  Am                      G                       F                       F 
e|-0---------------------|-3---------------------|-1---------------------|-----------------------| 
B|-1---------------------|-3---------------------|-1---------------------|-----------------------| 
G|-2---------------------|-0---------------------|-2---------------------|-2--2--2--2--2--2--2--2| 
D|-2---------------------|-0---------------------|-3---------------------|-3--3--3--3--3--3--3--3| 
A|-0---------------------|-2---------------------|-3---------------------|-3--3--3--3--3--3--3--3| 
E|-----------------------|-3---------------------|-1---------------------|-1--1--1--1--1--1--1--1| 
  Yeah, there's no such thing as gravity 

Chorus 
  C                       C                       Em                      Em 
e|-----------------------|-----------------------|-----------------------|-----------------------| 
B|-x--x--5--5--x--x--5--5|-x--x--5--5--x--x--5--5|-x--x--8--8--x--x--8--8|-x--x--8--8--x--x--8--8| 
G|-x--x--5--5--x--x--5--5|-x--x--5--5--x--x--5--5|-x--x--9--9--x--x--9--9|-x--x--9--9--x--x--9--9| 
D|-x--x--5--5--x--x--5--5|-x--x--5--5--x--x--5--5|-x--x--9--9--x--x--9--9|-x--x--9--9--x--x--9--9| 
A|-----------------------|-----------------------|-----------------------|-----------------------| 
E|-----------------------|-----------------------|-----------------------|-----------------------| 
  We got five seconds til the end of the world. Forever, I'ma find that girl 

  Am                      G                       F                       F 
e|-----------------------|-----------------------|-----------------------|-----------------------| 
B|-x--x-10-10--x--x-10-10|-x--x--8--8--x--x--8--8|-x--x--6--6--x--x--6--6|-x--x--6--6--x--x--6--6| 
G|-x--x--9--9--x--x--9--9|-x--x--7--7--x--x--7--7|-x--x--5--5--x--x--5--5|-x--x--5--5--x--x--5--5| 
D|-x--x--7--7--x--x--7--7|-x--x--5--5--x--x--5--5|-x--x--3--3--x--x--3--3|-x--x--3--3--x--x--3--3| 
A|-----------------------|-----------------------|-----------------------|-----------------------| 
E|-----------------------|-----------------------|-----------------------|-----------------------| 
  Three, two, one, yeah we got lift off 

  C                       C                       Em                      Em 
e|-----------------------|-----------------------|-----------------------|-----------------------| 
B|-x--x--5--5--x--x--5--5|-x--x--5--5--x--x--5--5|-x--x--8--8--x--x--8--8|-x--x--8--8--x--x--8--8| 
G|-x--x--5--5--x--x--5--5|-x--x--5--5--x--x--5--5|-x--x--9--9--x--x--9--9|-x--x--9--9--x--x--9--9| 
D|-x--x--5--5--x--x--5--5|-x--x--5--5--x--x--5--5|-x--x--9--9--x--x--9--9|-x--x--9--9--x--x--9--9| 
A|-----------------------|-----------------------|-----------------------|-----------------------| 
E|-----------------------|-----------------------|-----------------------|-----------------------| 
  We got five seconds til the end of the world. Forever, I'ma find that girl 

  Am                      G                       F                       F 
e|-----------------------|-----------------------|-----------------------|-----------------------| 
B|-x--x-10-10--x--x-10-10|-x--x--8--8--x--x--8--8|-x--x--6--6--x--x--6--6|-x--x--6--6--x--x--6--6| 
G|-x--x--9--9--x--x--9--9|-x--x--7--7--x--x--7--7|-x--x--5--5--x--x--5--5|-x--x--5--5--x--x--5--5| 
D|-x--x--7--7--x--x--7--7|-x--x--5--5--x--x--5--5|-x--x--3--3--x--x--3--3|-x--x--3--3--x--x--3--3| 
A|-----------------------|-----------------------|-----------------------|-----------------------| 
E|-----------------------|-----------------------|-----------------------|-----------------------| 
  Three, two, one, yeah we got lift off 

Bridge 
  C                       C                       G                       G 
e|-0---------------------|(0)--------------------|-3---------------------|(3)--------------------| 
B|-1---------------------|(1)--------------------|-3---------------------|(3)--------------------| 
G|-0---------------------|(0)--------------------|-0---------------------|(0)--------------------| 
D|-2---------------------|(2)--------------------|-0---------------------|(0)--------------------| 
A|-3---------------------|(3)--------------------|-2---------------------|(2)--------------------| 
E|-----------------------|-----------------------|-3---------------------|(3)--------------------| 
  Tonight, take flight 

  Dm                      Dm                      F                       F 
e|-1---------------------|(1)--------------------|-1---------------------|(1)--------------------| 
B|-3---------------------|(3)--------------------|-1---------------------|(1)--------------------| 
G|-2---------------------|(2)--------------------|-2---------------------|(2)--------------------| 
D|-0---------------------|(0)--------------------|-3---------------------|(3)--------------------| 
A|-----------------------|-----------------------|-3---------------------|(3)--------------------| 
E|-----------------------|-----------------------|-1---------------------|(1)--------------------| 
  And just leave it all behind. Just leave it all behind 

  C                       C                       G                       G 
e|-----------------------|-----------------------|-----------------------|-----------------------| 
B|-x--x--5--5--x--x--5--5|-x--x--5--5--x--x--5--5|-x--x--3--3--x--x--3--3|-x--x--3--3--x--x--3--3| 
G|-x--x--5--5--x--x--5--5|-x--x--5--5--x--x--5--5|-x--x--4--4--x--x--4--4|-x--x--4--4--x--x--4--4| 
D|-x--x--5--5--x--x--5--5|-x--x--5--5--x--x--5--5|-x--x--5--5--x--x--5--5|-x--x--5--5--x--x--5--5| 
A|-----------------------|-----------------------|-----------------------|-----------------------| 
E|-----------------------|-----------------------|-----------------------|-----------------------| 
  Tonight, no lights 

  Dm                      Dm                      F                       F 
e|-----------------------|-----------------------|-1---------------------|(1)--------------------| 
B|-x--x--6--6--x--x--6--6|-x--x--6--6--x--x--6--6|-1---------------------|(1)--------------------| 
G|-x--x--7--7--x--x--7--7|-x--x--7--7--x--x--7--7|-2---------------------|(2)--------------------| 
D|-x--x--7--7--x--x--7--7|-x--x--7--7--x--x--7--7|-3---------------------|(3)--------------------| 
A|-----------------------|-----------------------|-3---------------------|(3)--------------------| 
E|-----------------------|-----------------------|-1---------------------|(1)--------------------| 
  Just leave it all behind. Just leave it all behind 

Chorus 
  C                       C                       Em                      Em 
e|-----------------------|-----------------------|-----------------------|-----------------------| 
B|-x--x--5--5--x--x--5--5|-x--x--5--5--x--x--5--5|-x--x--8--8--x--x--8--8|-x--x--8--8--x--x--8--8| 
G|-x--x--5--5--x--x--5--5|-x--x--5--5--x--x--5--5|-x--x--9--9--x--x--9--9|-x--x--9--9--x--x--9--9| 
D|-x--x--5--5--x--x--5--5|-x--x--5--5--x--x--5--5|-x--x--9--9--x--x--9--9|-x--x--9--9--x--x--9--9| 
A|-----------------------|-----------------------|-----------------------|-----------------------| 
E|-----------------------|-----------------------|-----------------------|-----------------------| 
  We got five seconds til the end of the world. Forever, I'ma find that girl 

  Am                      G                       F                       F 
e|-----------------------|-----------------------|-----------------------|-----------------------| 
B|-x--x-10-10--x--x-10-10|-x--x--8--8--x--x--8--8|-x--x--6--6--x--x--6--6|-x--x--6--6--x--x--6--6| 
G|-x--x--9--9--x--x--9--9|-x--x--7--7--x--x--7--7|-x--x--5--5--x--x--5--5|-x--x--5--5--x--x--5--5| 
D|-x--x--7--7--x--x--7--7|-x--x--5--5--x--x--5--5|-x--x--3--3--x--x--3--3|-x--x--3--3--x--x--3--3| 
A|-----------------------|-----------------------|-----------------------|-----------------------| 
E|-----------------------|-----------------------|-----------------------|-----------------------| 
  Three, two, one, yeah we got lift off 

  C                       C                       Em                      Em 
e|-----------------------|-----------------------|-----------------------|-----------------------| 
B|-x--x--5--5--x--x--5--5|-x--x--5--5--x--x--5--5|-x--x--8--8--x--x--8--8|-x--x--8--8--x--x--8--8| 
G|-x--x--5--5--x--x--5--5|-x--x--5--5--x--x--5--5|-x--x--9--9--x--x--9--9|-x--x--9--9--x--x--9--9| 
D|-x--x--5--5--x--x--5--5|-x--x--5--5--x--x--5--5|-x--x--9--9--x--x--9--9|-x--x--9--9--x--x--9--9| 
A|-----------------------|-----------------------|-----------------------|-----------------------| 
E|-----------------------|-----------------------|-----------------------|-----------------------| 
  We got five seconds til the end of the world. Forever, I'ma love you girl 

  Am                      G                       F                       F 
e|-----------------------|-----------------------|-----------------------|-----------------------| 
B|-x--x-10-10--x--x-10-10|-x--x--8--8--x--x--8--8|-x--x--6--6--x--x--6--6|-x--x--6--6--x--x--6--6| 
G|-x--x--9--9--x--x--9--9|-x--x--7--7--x--x--7--7|-x--x--5--5--x--x--5--5|-x--x--5--5--x--x--5--5| 
D|-x--x--7--7--x--x--7--7|-x--x--5--5--x--x--5--5|-x--x--3--3--x--x--3--3|-x--x--3--3--x--x--3--3| 
A|-----------------------|-----------------------|-----------------------|-----------------------| 
E|-----------------------|-----------------------|-----------------------|-----------------------| 
  Three, two, one, yeah we got lift off 

  C                       C                       Em                      Em 
e|-----------------------|-----------------------|-----------------------|-----------------------| 
B|-x--x--5--5--x--x--5--5|-x--x--5--5--x--x--5--5|-x--x--8--8--x--x--8--8|-x--x--8--8--x--x--8--8| 
G|-x--x--5--5--x--x--5--5|-x--x--5--5--x--x--5--5|-x--x--9--9--x--x--9--9|-x--x--9--9--x--x--9--9| 
D|-x--x--5--5--x--x--5--5|-x--x--5--5--x--x--5--5|-x--x--9--9--x--x--9--9|-x--x--9--9--x--x--9--9| 
A|-----------------------|-----------------------|-----------------------|-----------------------| 
E|-----------------------|-----------------------|-----------------------|-----------------------| 
  We got lift off (five), no way, you ain't having me (four). There's no such thing as gravity 

  Am                      G                       F                       F 
e|-----------------------|-----------------------|-----------------------|-----------------------| 
B|-x--x-10-10--x--x-10-10|-x--x--8--8--x--x--8--8|-x--x--6--6--x--x--6--6|-x--x--6--6--x--x--6--6| 
G|-x--x--9--9--x--x--9--9|-x--x--7--7--x--x--7--7|-x--x--5--5--x--x--5--5|-x--x--5--5--x--x--5--5| 
D|-x--x--7--7--x--x--7--7|-x--x--5--5--x--x--5--5|-x--x--3--3--x--x--3--3|-x--x--3--3--x--x--3--3| 
A|-----------------------|-----------------------|-----------------------|-----------------------| 
E|-----------------------|-----------------------|-----------------------|-----------------------| 
  So I'm flying high up above (three, two, one). Yeah, you are free to one love (five) 

  C                       C                       Em                      Em 
e|-----------------------|-----------------------|-----------------------|-----------------------| 
B|-x--x--5--5--x--x--5--5|-x--x--5--5--x--x--5--5|-x--x--8--8--x--x--8--8|-x--x--8--8--x--x--8--8| 
G|-x--x--5--5--x--x--5--5|-x--x--5--5--x--x--5--5|-x--x--9--9--x--x--9--9|-x--x--9--9--x--x--9--9| 
D|-x--x--5--5--x--x--5--5|-x--x--5--5--x--x--5--5|-x--x--9--9--x--x--9--9|-x--x--9--9--x--x--9--9| 
A|-----------------------|-----------------------|-----------------------|-----------------------| 
E|-----------------------|-----------------------|-----------------------|-----------------------| 
  I'm leaving all my troubles behind (four) 'Cause everything's gonna be alright 

  Am                      G                       F                       F 
e|-----------------------|-----------------------|-----------------------|-----------------------| 
B|-x--x-10-10--x--x-10-10|-x--x--8--8--x--x--8--8|-x--x--6--6--x--x--6--6|-x--x--6--6--x--x--6--6| 
G|-x--x--9--9--x--x--9--9|-x--x--7--7--x--x--7--7|-x--x--5--5--x--x--5--5|-x--x--5--5--x--x--5--5| 
D|-x--x--7--7--x--x--7--7|-x--x--5--5--x--x--5--5|-x--x--3--3--x--x--3--3|-x--x--3--3--x--x--3--3| 
A|-----------------------|-----------------------|-----------------------|-----------------------| 
E|-----------------------|-----------------------|-----------------------|-----------------------| 
 You do the math, it all adds up (three, two, one). Yeah, you are free to one love 

Outro 
Piano (Transcribed for guitar) 
  C                       C                       C                       C 
e|-----------------------|-----------------------|-----------------------|-----------------------| 
B|-5-----------------5---|-------5--------5------|-5-----------------5---|-------5--------5------| 
G|-5-----------------5---|-------5--------5------|-5-----------------5---|-------5--------5------| 
D|-5-----------------5---|-------5--------5------|-5-----------------5---|-------5--------5------| 
A|-3-----------------3---|-------3--------3------|-3-----------------3---|-------3--------3------| 
E|-----------------------|-----------------------|-----------------------|-----------------------| 
  We got lift off, hey, hey. We got lift off, hey, hey 


************************************ 

| x   Dead note 
| (n) Ghost note 

************************************ 
  

cifra enviadasem correções
enviado porenviada por:alyslima
top 5 | goldfinger
top punk rock
Outras músicas do artista letras do(a) Goldfinger
Top cifras »Top artistas »
Petaxxon Comunicação Online
Cifras.com.br - Melhor e mais completo site de cifras e tablaturas do Brasil
Mais de 1 milhão de acordes de músicas cadastradas desde 2003
As informações contidas no nosso site são colaborações de seus usuários e podem conter erros, sendo assim, não nos responsabilizamos sobre nenhuma destas.
close
menos
mais
close
Cor dos acordes:

Cor da letra:

 

save
close
close
 
redimensionar