Cifras e Tablaturas
Gone is Gone

Gone is Gone

Resolve

Cifras Cancelar Versão de Impressão
cifras

Gone is Gone - Resolve

fixar na tela  
Exibindo: vídeo-aula ver clipes redimensionar

Tom:

F

ver outros tons
  Intro 

Bar the top three strings on 2nd fret, makes it easier to play. 

e|-----||-----------2-----------|| 
B|-----||-----------------------|| 
G|--2--||-----------------4--2--|| 
D|-----||--0--4--0-----0--------|| x 4 
A|-----||-----------------------|| 
E|-----||-----------------------|| 

e|------------------------------------------------| 
B|------------------------------------------------| 
G|------------------------------------------------| 
D|--------0-----4--0------------0-----4--0--------| 
A|--2--2-----2--------4--2---2-----2--------4--2--| 
E|------------------------------------------------| 

e|-----||-----------------------|| 
B|-----||-----------------------|| 
G|-----||-----------------------|| 
D|-----||-----0-----4--0--------|| x 2 
A|--0--||--2-----2--------4--2--|| 
E|-----||-----------------------|| 

Verse 

00:25 

e|-----||-----------2-----------|| 
B|-----||-----------------------|| 
G|-----||-----------------4--2--|| 
D|--0--||--0--4--0-----0--------|| x 4 
A|-----||-----------------------|| 
E|-----||-----------------------|| 

e|------------------------------------------------| 
B|------------------------------------------------| 
G|------------------------------------------------| 
D|--------0-----4--0------------0-----4--0--------| 
A|--2--2-----2--------4--2---2-----2--------4--2--| 
E|------------------------------------------------| 

e|-----||-----------------------|| 
B|-----||-----------------------|| 
G|-----||-----------------------|| 
D|-----||-----0-----4--0--------|| x 2 
A|--0--||--2-----2--------4--2--|| 
E|-----||-----------------------|| 

e||--------------------------------------------------|| 
B||--------------------------------------------------|| 
G||-------------(2)----------------------4-----------|| 
D||--------0-----4--0--------------4--------4--------|| x 2 
A||-----2-----2--------2--------2-----2--------------|| 
E||--3--------------------2--0-----------------0--2--|| 

e|--------------------------------------------| 
B|--------------------------------------------| 
G|-------------(2)----------------------------| 
D|--------0-----4--0---------------------0-2--| 
A|-----2-----2--------2------------0-2-3------| 
E|--3--------------------2--0--2-3------------| 

Chorus 

01:08 

Guitar 1 (Let ring) 

   Fmaj7 

e||--0--|| 
B||--1--|| 
G||--2--|| 
D||--3--|| x 2 
A||--3--|| 
E||-----|| 

Guitar 2 

   Fmaj7                    D7sus2 

e||--------------0-----------------------0-----------| 
B||--------1--------1-----1--------1--------1--------| 
G||-----2-----2--------2--------2-----2--------2--4--| 
D||--3-----------------------0-----------------------| 
A||--------------------------------------------------| 
E||--------------------------------------------------| 

   C                        G 

e|---------------------------------------------------|| 
B|--------------1------------------------------------|| 
G|--------0--------0-----0-----------------0-----0---|| 
D|-----2-----2--------2-----------0-----------0------|| x 2 
A|--3--------------------------2-----2--2------------|| 
E|--------------------------3------------------------|| 

Guitar 3 (Only on the C and G) 

   C 

e||---------------8--------------------------3-----3--|| 
B||---------8--------8-----8--------3-----0-----3-----|| 
G||------9-----9--------9--------4-----4--------------|| 
D||--10-----------------------5-----------------------|| x 2 
A||---------------------------------------------------|| 
E||---------------------------------------------------|| 


Break 

01:32 

Guitar 1 

e||--------------------------------------------------|| 
B||-----------------------------------------------0--|| 
G||--------------------------------------------2-----|| 
D||--------4-----5--4-----4--------4--------2--------|| x 2 
A||-----2-----2--------2--------2-----2--3-----------|| 
E||--0-----------------------0-----------------------|| 

Guitar 2 

e||----------------------------------------------7---|| 
B||--------7-----8--7-----7--------7----------10-----|| 
G||-----------------------------------------9--------|| 
D||-----9-----9--------9--------9-----9--10----------|| x 2 
A||--7-----------------------7-----------------------|| 
E||--------------------------------------------------|| 

2nd Verse 

01:44 

e|-----||-----------2-----------|| 
B|-----||-----------------------|| 
G|--2--||-----------------4--2--|| 
D|-----||--0--4--0-----0--------|| x 4 
A|-----||-----------------------|| 
E|-----||-----------------------|| 

e|------------------------------------------------| 
B|------------------------------------------------| 
G|------------------------------------------------| 
D|--------0-----4--0------------0-----4--0--------| 
A|--2--2-----2--------4--2---2-----2--------4--2--| 
E|------------------------------------------------| 

e|-----||-----------------------|| 
B|-----||-----------------------|| 
G|-----||-----------------------|| 
D|-----||-----0-----4--0--------|| x 2 
A|--0--||--2-----2--------4--2--|| 
E|-----||-----------------------|| 

Guitar 1 

e|--------------------------------------------------| 
B|--------------------------------------------------| 
G|--------------------------------------4-----------| 
D|--------0-----4--0--------------4--------4--------| 
A|-----2-----2--------2--------2-----2--------------| 
E|--3--------------------2--0-----------------0--2--| 

e|--------------------------------------------| 
B|--------------------------------------------| 
G|-------------(2)----------------------------| 
D|--------0-----4--0---------------------0-2--| 
A|-----2-----2--------2------------0-2-3------| 
E|--3--------------------2--0--2-3------------| 

Guitar 2 

e|-------------------------------------------7-----------| 
B|----------------10-------------------7--------7--------| 
G|---------11---------11---------------------------------| 
D|------9------9--------------------9-----9--------------| 
A|--10--------------------10--9--7-----------------7--9--| 
E|-------------------------------------------------------| 

e|--------------------------------------------------| 
B|----------------10--------------------------------| 
G|---------11---------11-----------------------7-9--| 
D|------9------9------------------------7-9-10------| 
A|--10--------------------10--9--7-9-10-------------| 
E|--------------------------------------------------| 

Chorus 

02:20 

   Fmaj7                    D7sus2 

e||--------------0-----------------------0-----------| 
B||--------1--------1-----1--------1--------1--------| 
G||-----2-----2--------2--------2-----2--------2--4--| 
D||--3-----------------------0-----------------------| 
A||--------------------------------------------------| 
E||--------------------------------------------------| 

   C                        G 

e|---------------------------------------------------|| 
B|--------------1------------------------------------|| 
G|--------0--------0-----0-----------------0-----0---|| 
D|-----2-----2--------2-----------0-----------0------|| x 2 
A|--3--------------------------2-----2--2------------|| 
E|--------------------------3------------------------|| 

Guitar 3 (Only on the C and G) 

   C 

e||---------------8--------------------------3-----3--|| 
B||---------8--------8-----8--------3-----0-----3-----|| 
G||------9-----9--------9--------4-----4--------------|| 
D||--10-----------------------5-----------------------|| x 2 
A||---------------------------------------------------|| 
E||---------------------------------------------------|| 

Break 

02:44 

Guitar 1 

e||--------------------------------------------------|| 
B||-----------------------------------------------0--|| 
G||--------------------------------------------2-----|| 
D||--------4-----5--4-----4--------4--------2--------|| x 4 
A||-----2-----2--------2--------2-----2--3-----------|| 
E||--0-----------------------0-----------------------|| 

Guitar 2 

e||----------------------------------------------7---|| 
B||--------7-----8--7-----7--------7----------10-----|| 
G||-----------------------------------------9--------|| 
D||-----9-----9--------9--------9-----9--10----------|| x 4 
A||--7-----------------------7-----------------------|| 
E||--------------------------------------------------|| 

Chorus 

03:08 

Guitar 1 


   Fmaj7   D5   C   Gadd5 

e||--0--------------3----|| 
B||--1----2----1----3----|| 
G||--2----3----0----0----|| 
D||--3----0----2----0----|| 
A||--3---------3----2----|| 
E||-----------------3----|| 


Guitar 2 

   Fmaj7                    D7sus2 

e||--------------0-----------------------0-----------| 
B||--------1--------1-----1--------1--------1--------| 
G||-----2-----2--------2--------2-----2--------2--4--| 
D||--3-----------------------0-----------------------| 
A||--------------------------------------------------| 
E||--------------------------------------------------| 

   C                        G 

e|---------------------------------------------------|| 
B|--------------1------------------------------------|| 
G|--------0--------0-----0-----------------0-----0---|| 
D|-----2-----2--------2-----------0-----------0------|| x 4 
A|--3--------------------------2-----2--2------------|| 
E|--------------------------3------------------------|| 

Guitar 3 (Only on the C and G) 

   C 

e||---------------8--------------------------3-----3--|| 
B||---------8--------8-----8--------3-----0-----3-----|| 
G||------9-----9--------9--------4-----4--------------|| 
D||--10-----------------------5-----------------------|| x 4 
A||---------------------------------------------------|| 
E||---------------------------------------------------|| 
  

cifra enviadasem correções
enviado porenviada por:educastilho
top 5 | gone is gone
top rock'n roll
Outras músicas do artista letras do(a) Gone is Gone
Top cifras »Top artistas »
Petaxxon Comunicação Online
Cifras.com.br - Melhor e mais completo site de cifras e tablaturas do Brasil
Mais de 1 milhão de acordes de músicas cadastradas desde 2003
As informações contidas no nosso site são colaborações de seus usuários e podem conter erros, sendo assim, não nos responsabilizamos sobre nenhuma destas.
close
menos
mais
close
Cor dos acordes:

Cor da letra:

 

save
close
close
 
redimensionar