Cifras e Tablaturas
Good Boy

Good Boy

Higher

Cifras Cancelar Versão de Impressão

Good Boy - Higher

Tom:

  			
Intro (ring out A chord) 

e|---------| 
B|---------| 
G|-8----6--| 
D|-9----7--| 
A|-9----7--| 
E|-7----5--| 

Verse 

e|-----------------------------------------------------------------------| 
B|-----------------------------------------------------------------------| 
G|-8-8-8-8-8-8-8-8----------14-13-11--8-8-8-8-8-8-8-8----------14-14-14--|x2 
D|-9-9-9-9-9-9-9-9-14-14-14-x--x--x---9-9-9-9-9-9-9-9-14-14-14-x--x--x---| 
A|-9-9-9-9-9-9-9-9-x--x--x--12-11-9---9-9-9-9-9-9-9-9-x--x--x--12-12-12--| 
E|-7-7-7-7-7-7-7-7-12-12-12-----------7-7-7-7-7-7-7-7-12-12-12-----------| 

e|-----------------------------------------------| 
B|-----------------------------------------------| 
G|-6------------14-13-11---6-----------14-14-14--|x2 
D|-9--14-14-14--x--x--x----9--14-14-14-x--x--x---| 
A|-9--x--x--x---12-11-9----9--x--x--x--12-12-12--| 
E|-7--12-12-12-------------7--12-12-12-----------| 

Pre-Chorus 

e|------------------------------------| 
B|------------------------------------| 
G|-------------------8-8-8-6-6-6-777--|x2 
D|-------------------9-9-9-7-7-7-xxx--| 
A|-12-11-9---12-11-9-9-9-9-7-7-7-555--| 
E|---------7---------7-7-7-5-5-5------| 

Verse 

e|-----------------------------------------------| 
B|-----------------------------------------------| 
G|-6------------14-13-11---6-----------14-14-14--|x4 
D|-9--14-14-14--x--x--x----9--14-14-14-x--x--x---| 
A|-9--x--x--x---12-11-9----9--x--x--x--12-12-12--| 
E|-7--12-12-12-------------7--12-12-12-----------| 

Chorus 

e|--------------------------| 
B|--------------------------| 
G|-8--8------8--8------6----| 
D|-9--9-9--9-9--9-9--9-7-9--| 
A|-9--9-7--7-9--9-7--7-7-7--| 
E|-7--7-0--0-7--7-0--0-5-0--| 

Verse 

e|-----------------------------------------------------------------------| 
B|-----------------------------------------------------------------------| 
G|-8-8-8-8-8-8-8-8----------14-13-11--8-8-8-8-8-8-8-8----------14-14-14--|x2 
D|-9-9-9-9-9-9-9-9-14-14-14-x--x--x---9-9-9-9-9-9-9-9-14-14-14-x--x--x---| 
A|-9-9-9-9-9-9-9-9-x--x--x--12-11-9---9-9-9-9-9-9-9-9-x--x--x--12-12-12--| 
E|-7-7-7-7-7-7-7-7-12-12-12-----------7-7-7-7-7-7-7-7-12-12-12-----------| 

e|-----------------------------------------------| 
B|-----------------------------------------------| 
G|-6------------14-13-11---6-----------14-14-14--|x2 
D|-9--14-14-14--x--x--x----9--14-14-14-x--x--x---| 
A|-9--x--x--x---12-11-9----9--x--x--x--12-12-12--| 
E|-7--12-12-12-------------7--12-12-12-----------| 

Pre-Chorus 

e|------------------------------------| 
B|------------------------------------| 
G|-------------------8-8-8-6-6-6-777--|x2 
D|-------------------9-9-9-7-7-7-xxx--| 
A|-12-11-9---12-11-9-9-9-9-7-7-7-555--| 
E|---------7---------7-7-7-5-5-5------| 

Chorus 

e|--------------------------| 
B|--------------------------| 
G|-8--8------8--8------6----|x2 
D|-9--9-9--9-9--9-9--9-7-9--| 
A|-9--9-7--7-9--9-7--7-7-7--| 
E|-7--7-0--0-7--7-0--0-5-0--| 
  
Bridge 

e|----------------------| 
B|----------------------| 
G|----------------------|x3 
D|----------------------| 
A|----------------------| 
E|-5h7-7-7-7-5h7-7-7-7--| 

Solo 

e|----------------------7--10--| 
B|----------------------10-12--| 
G|-9b11-7h9p7--7-7-7----9--11--| 
D|------------9-9-9-9----------| 
A|-----------------------------| 
E|-----------------------------| 

Outro 

e|------------------------------------| 
B|------------------------------------| 
G|-------------------8-8-8-6-6-6-777--| 
D|-------------------9-9-9-7-7-7-xxx--| 
A|-12-11-9---12-11-9-9-9-9-7-7-7-555--| 
E|---------7---------7-7-7-5-5-5------| 

e|--------------------| 
B|--------------------| 
G|--------------------| 
D|--------------------| 
A|-12-11-9---12-11-9--| 
E|---------7----------| 

************************************ 

| h   Hammer-on 
| p   Pull-off 
| x   Dead note 

************************************ 
    	
fixar
fixar inscrever-se

enviado porenviado por: lucicamargo
cifra enviadaCorrigida por: sem correções
logo top cifrasComente
ico música do artistaMúsicas deste artista
ico curtiuCurtiu?
ico destaqueDestaque
Petaxxon Comunicação Online

Cifras.com.br - Melhor e mais completo site de cifras e tablaturas do Brasil Mais de 1 milhão de acordes de músicas cadastradas desde 2003
As informações contidas no nosso site são colaborações de seus usuários e podem conter erros, sendo assim, não nos responsabilizamos sobre nenhuma destas.

close
menos
mais
close
Cor dos acordes:

Cor da letra:

close
Alinhar acordes a direita Alinhar acordes a esquerda Alinhar acordes em baixo Alinhar acordes no topo
close
  Mostrar todos os acordes Esconder acordes muito fáceis Esconder acordes fáceis Esconder acordes intermediários
redimensionar
glossário