Cifras e Tablaturas
Good Charlotte

Good Charlotte

Keep Swingin

Cifras Cancelar Versão de Impressão

Good Charlotte - Keep Swingin

Tom:

  			
Intro/Verse 
e|----------------------------------------3x-|-------------------------------------------| 
B|-------------------------------------------|-------------------------------------------| 
G|-3------3------3-3-3-3-3-3/8-8-8-8-7-7-7-7-|-3------3------3-3-3-3-3-3/8-8-8-8-7-7\5-5-| 
D|----x6-----x6------------------------------|----x6-----x6------------------------------| 
A|-1------1------1-1-1-1-1-1/6-6-6-6-5-5-5-5-|-1------1------1-1-1-1-1-1/6-6-6-6-5-5\3-3-| 
D|-------------------------------------------|-------------------------------------------| 

Chorus 

Guitar 1, 3x 
e|----------------------------------------------------| 
B|----------------------------------------------------| 
G|-3~-3~--x-8~---5~--5~-5~----------------------------| 
D|-3~-3~--x-8~---5~--5~-5~--x-6-6~---x-6-6~-/8--8-8-x-| 
A|-1~-1~--x-6~---3~--3~-3~--x-6-6~---x-6-6~-/8--8-8-x-| 
D|--------------------------x-6-6~---x-6-6~-/8--8-8-x-| 

Guitar 2 (comes in after Guitar 1 1x) 
e|---------------------------------------------------------| 
B|---------------------------------------------------------| 
G|-3~-3~--x-8~---5~--5~-5~----8-8~-----8-8~-/10~-10-10-10--| 
D|-3~-3~--x-8~---5~--5~-5~---------------------------------| 
A|-1~-1~--x-6~---3~--3~-3~----6-6~-----6-6~-/8~--8--8--8---| 
D|---------------------------------------------------------| 

verse 2 

Guitar 1 (comes in at 00:51) 
e|----------------------------------------------3x-|--------------------------------------------------| 
B|-------------------------------------------------|--------------------------------------------------| 
G|-------------------------------------------------|--------------------------------------------------| 
D|-------------------------------------------------|--------------------------------------------------| 
A|-1--x6---1--x6---1-1-1-1-1-1/6-6-6-6-6-6-5-5-5-5-|-1--x6-----------------------/6-6-6-6-6-6-5-5-5-5-| 
D|-------------------------------------------------|---------5--x6---1-1-1-1-1-1----------------------| 

Guitar 2 (play this fast) ( comes in at 00:59) 
e|-------------------------------------------------------------------------------------| 
B|---15-18--15------------------15--18-15--15-------------------18-15--15-16-15--------| 
G|-15-----15--15-17-15--15----15--15-----15--------15--17-15--15-----17--------17-15---| 
D|--------------------15------------------------15--15-----15--------------------------| 
A|-------------------------------------------------------------------------------------| 
D|-------------------------------------------------------------------------------------| 
   harmonics 
e|---------------------------------------------------13--------13----------------| 
B|---------------------15--18-15--15-------------------15-13-15--15-13-----------| 
G|---15--17-15--15---15--15-----15------15--17-15--15-----------------15---------| 
D|-15--15-----15----------------------13--13-----13------------------------------| 
A|-------------------------------------------------------------------------------| 
D|-------------------------------------------------------------------------------| 

Chorus 2 

Guitar 1, 3x 
e|----------------------------------------------------| 
B|----------------------------------------------------| 
G|-3~-3~--x-8~---5~--5~-5~----------------------------| 
D|-3~-3~--x-8~---5~--5~-5~--x-6-6~---x-6-6~-/8--8-8-x-| 
A|-1~-1~--x-6~---3~--3~-3~--x-6-6~---x-6-6~-/8--8-8-x-| 
D|--------------------------x-6-6~---x-6-6~-/8--8-8-x-| 

Guitar 2 (comes in after Guitar 1 1x) 
e|-13--x16---------------------------------------------------------------------------------------| 
B|-11--------------------------------------------------------------------------------------------| 
G|----------8-8~-----8-8~-/10~-------------------x-8~---5~--5~-5~----8-8~-----8-8~-/10~-10-10-10-| 
D|-----------------------------12-12-12---8~-8~--x-8~---5~--5~-5~--------------------------------| 
A|----------6-6~-----6-6~-/8~--8--8--8----8~-8~--x-6~---3~--3~-3~----6-6~-----6-6~-/8~--8--8--8--| 
D|-----------------------------8--8--8----8~-8~--------------------------------------------------| 

Bridge 

Guitar 1 (acoustic), 4x 
e|-------------------------------------------------| 
B|-4~-----4~------4~-----4~------------------------| 
G|-3~-----3~------3~-----3~------------------------| 
D|-5~-----3~------5------3~------------------------| 
A|-6~-----5~------6~-----5~------------------------| 
D|-------------------------------------------------| 

Guitar 2, 3x (acoustic) 
e||------4x-|-----4x-|------4x-|-----4x---||-----4x-|-----4x-|-4x-----|------|| 
B||o--------|--------|---------|---------o||--------|--------|-----4~-|------|| 
G||------8~-|-----8~-|------8~-|------8~--||-----8~-|-----8~-|---3----|------|| 
D||----8----|---8----|----8----|---8~-----||---8----|---8----|--------|------|| 
A||o-6------|-5------|---------|---------o||-6------|-5------|-3------|------|| 
D||---------|--------|-10------|-6~-------||--------|--------|--------|-6~---|| 

Chorus 

Guitar 1 
e|----------------------------------------------------|----------------------------| 
B|----------------------------------------------------|----------------------------| 
G|-3~-3~--x-8~---5~--5~-5~----------------------------|-3~-3~--x-8~---5~--5~-5-----| 
D|-3~-3~--x-8~---5~--5~-5~--x-6-6~---x-6-6~-/8--8-8-x-|-3~-3~--x-8~---5~--5~-5-----| 
A|-1~-1~--x-6~---3~--3~-3~--x-6-6~---x-6-6~-/8--8-8-x-|-1~-1~--x-6~---3~--3~-3-----| 
D|--------------------------x-6-6~---x-6-6~-/8--8-8-x-|----------------------------| 

e|-------------------------------------------------3x-| 
B|----------------------------------------------------| 
G|-3~-3~--x-8~---5~--5~-5~----------------------------| 
D|-3~-3~--x-8~---5~--5~-5~--x-6-6~---x-6-6~-/8--8-8-x-| 
A|-1~-1~--x-6~---3~--3~-3~--x-6-6~---x-6-6~-/8--8-8-x-| 
D|--------------------------x-6-6~---x-6-6~-/8--8-8-x-| 

Guitar 2 (acoustic, light distortion)                                                           
e|----------------------------------------------------------------------------| 
B|----------------------------------------------------------------------------| 
G|-3~-3~--x-8~---5~--5~-5~----8-8~---x-8-8-------------3~-3~--x-8~---5~--5~-5-| 
D|-3~-3~--x-8~---5~--5~-5~--x-6-6~---x-6-6~-/12-1212-x-3~-3~--x-8~---5~--5~-5-| 
A|-1~-1~--x-6~---3~--3~-3~--x-6-6~---x-6-6~-/8--8-8--x-1~-1~--x-6~---3~--3~-3-| 
D|--------------------------x-6-6~---x-6-6~-/8--8-8--x------------------------| 

(Back to distortion) 
e|--------------------------------------------------3x-| 
B|-----------------------------------------------------| 
G|-3~-3~--x-8~---5~--5~-5~----8-8~---x-8-8-------------| 
D|-3~-3~--x-8~---5~--5~-5~--x-6-6~---x-6-6~-/12-1212-x-| 
A|-1~-1~--x-6~---3~--3~-3~--x-6-6~---x-6-6~-/8--8-8--x-| 
D|--------------------------x-6-6~---x-6-6~-/8--8-8--x-| 

Outro 

Guitar 1 (acoustic), 4x 
e|-------------------------------------------------| 
B|-4~-----4~------4~-----4~------------------------| 
G|-3~-----3~------3~-----3~------------------------| 
D|-5~-----3~------5------3~------------------------| 
A|-6~-----5~------6~-----5~------------------------| 
D|-------------------------------------------------| 

Guitar 2 (acoustic) 
e||------4x-|-----4x-|------4x-|-----4x---||------| 
B||o--------|--------|-----4~--|---------o||------| 
G||------8~-|-----8~-|---3-----|------8~--||------| 
D||----8----|---8----|---------|---8~-----||------| 
A||o-6------|-5------|-3-------|---------o||-6~---| 
D||---------|--------|---------|-6~-------||------| 
_____________________________________________________________________________ 
x - mute note 
~ - let note ring 
/ or \ - slide 
    	
fixar
fixar inscrever-se

enviado porenviado por: andrsouza
cifra enviadaCorrigida por: sem correções
logo top cifrasComente
ico música do artistaMúsicas deste artista
ico curtiuCurtiu?
ico destaqueDestaque
Petaxxon Comunicação Online

Cifras.com.br - Melhor e mais completo site de cifras e tablaturas do Brasil Mais de 1 milhão de acordes de músicas cadastradas desde 2003
As informações contidas no nosso site são colaborações de seus usuários e podem conter erros, sendo assim, não nos responsabilizamos sobre nenhuma destas.

close
menos
mais
close
Cor dos acordes:

Cor da letra:

close
Alinhar acordes a direita Alinhar acordes a esquerda Alinhar acordes em baixo Alinhar acordes no topo
close
  Mostrar todos os acordes Esconder acordes muito fáceis Esconder acordes fáceis Esconder acordes intermediários
redimensionar
glossário