Cifras e Tablaturas
Goran Bregovic

Goran Bregovic

Lullaby

Cifras Cancelar Versão de Impressão Print

Goran Bregovic - Lullaby

Tom: Em

  • 0:00 / 0:00
Em7     Bm7 
E-|------------5--7-------7h8p7p5------------------7-----------2---2------| 
B-|---5--7--8--------8-------------8--7--5---------8---8-------3-----3----| 
G-|----------------------------------------------------7-----2---------2--| 
D-|----------------------------------------------(b9)---------4-------------| 
A-|---------------------------------------------7----------2--------------| 
E-|-----------------------0--------------------7----------2---------------| 



     Am7                 C 
E-|--------------------0---------3--3--3---2--3--5--0---------------------| 
B-|----1~~--1/3~~-----1------------------------------7~~----------------| 
G-|----0~~--0-0-0~~------0------------------------------------------------| 
D-|----2~~--2/4~~-------2-----------------------------------------------| 
A-|--0---------------------------3---------0------------------------------| 
E-|-----------------------------------------------------------------------| 



                           Em7     Bm7 
E-|------------5--7-------7h8p7p5-------------------7---------2-----------| 
B-|---5--7--8--------8-------------8--7--5---------8---------3------------| 
G-|-----------------------------------------------7---------2-------------| 
D-|----------------------------------------------(b9)-----------------------| 
A-|--------------------------------------------------------2--------------| 
E-|-----------------------0-----------------------------------------------| 



     Am7                C 
E-|------1~~------------0-------3--3--3---2--3--5--0----------------------| 
B-|----------1/3~~-----1---------------------------5h7~~----------------| 
G-|----0~~---0-0-0~~------------------------------------------------------| 
D-|---2~~----2/4~~------2~----------------------------------------------| 
A-|--0~~------------------------3---------0-------------------------------| 
E-|-----------------------------------------------------------------------| 


       Em7   Bm7          Am7           Em 
E-|-----7---7-----2---2-------------------------0-------------0------------| 
B-|-----8---8-----3----3--------1~~---1/3~~----1------------0--0---------| 
G-|-----7---7-----2-----2-------0~~---0-0-0-------0--------------0---------| 
D-|-----------------------------2~~---2/4~~--------------2---------------| 
A-|--7----------2-------------0---------------------------2----------------| 
E-|------------------------------------------------------0-----------------| 



    D9        C       Em     B5 
E-|---3------------------------0-------------------------------------------| 
B-|---2-----5--3--1--0------1---1---------0----------4--2------------------| 
G-|---0---------------------0----0--------0------4---------4--2------------| 
D-|-------------------------2-----------2--------4---------------4--2------| 
A-|----------------------3-------------2---------2-------------------------| 
E-|-----------------------------------0------------------------------------| 



     Em     B5 
E-|----------------------------------------| 
B-|-------0----------4--2------------------| 
G-|-------0------4---------4--2------------| 
D-|-----2--------4---------------4--2------| 
A-|----2---------2-------------------------| 
E-|---0------------------------------------| 


                     ___________________ 
                  Em     1. 
E-|---------------------------------------------------------| 
B-|---5---3-0-----------------------------------------------| 
G-|-----------2-0----2b(1/4)--0-----------------------------|  
D-|------------------1b(1/4)--0----2------------------------|  
A-|---0----------------------------2--------------2--3------| 
E-|--------------------------------0------0--2--3-----------| 


   _____________________ 
   |2.               harmonici 
E-|----------------------------------12---------------------|| 
B-|----------------------------------12---------------------|| 
G-|----------------------------------12---------------------|| 
D-|----------------------------------12---------------------|| 
A-|------------2--3--2--------------------------------------|| 
E-|---0--2--3-----------3--2~~--0~~~~~~~~~~~~---------------|| 

enviado porenviado por: gustsilva
cifra enviadaCorrigida por: sem correções
logo top cifrasComente
ico música do artistaMúsicas deste artista
ico curtiuCurtiu?
ico destaqueDestaque
Petaxxon Comunicação Online

Cifras.com.br - Melhor e mais completo site de cifras e tablaturas do Brasil Mais de 1 milhão de acordes de músicas cadastradas desde 2003
As informações contidas no nosso site são colaborações de seus usuários e podem conter erros, sendo assim, não nos responsabilizamos sobre nenhuma destas.

close
menos
mais
close
Cor dos acordes:

Cor da letra:

close
Alinhar acordes a direita Alinhar acordes a esquerda Alinhar acordes em baixo Alinhar acordes no topo
close
  Mostrar todos os acordes Esconder acordes muito fáceis Esconder acordes fáceis Esconder acordes intermediários
redimensionar
glossário