Cifras e Tablaturas
Gorefest

Gorefest

Infamous Existence

Cifras Cancelar Versão de Impressão
cifras

Gorefest - Infamous Existence

fixar na tela  
Exibindo: vídeo-aula ver clipes redimensionar

Tom:

  
Intro 0:00 
B|------------------------|------------------------|------------------------|------------------------| 
G|------------------------|------------------------|------------------------|------------------------| 
D|------------------------|------------------------|------------------------|------------------------| 
A|-2----------------------|------------------------|-2----------------------|------------------------| 
E|-2----------------------|------------------------|-2----------------------|------------------------| 
B|-0----------------------|------------------------|-0----------------------|------------------------| 

B|------------------------|------------------------|------------------------|------------------------| 
G|------------------------|------------------------|------------------------|------------------------| 
D|------------------------|------------------------|------------------------|------------------------| 
A|-2----------------------|------------------2-----|----------------------2-|----------------------2-| 
E|-2----------------------|------------------2-----|----------------------2-|----------------------2-| 
B|-0----------------------|------------------0-----|----------------------0-|----------------------0-| 

B|------------------------|------------------------| 
G|------------------------|------------------------| 
D|------------------------|------------------------| 
A|----------2-------------|-----2---2---2---2------| 
E|----------2-------------|-----2---2---2---2------| 
B|----------0-------------|-----0---0---0---0------| 

0:41 
B|------------------------|------------------------|------------------------|------------------------| 
G|------------------------|------------------------|------------------------|------------------------| 
D|------------------------|----------------4--3----|------------------------|----------------4--3----| 
A|-2----5----4----3-------|--2----5----4-----------|-2----5----4----3-------|--2----5----4-----------| 
E|------------------------|------------------------|------------------------|------------------------| 
B|------------------------|------------------------|------------------------|------------------------| 

B|------------------------| 
G|--5--4------------------| 
D|--------4--3------------| 
A|--------------5---------| 
E|-----------------4------| 
B|--------------------3---| 

verse 1:00 
B|------------------------|------------------------|------------------------|------------------------| 
G|------------------------|------------------------|------------------------|------------------------| 
D|------------------------|------------------------|------------------------|------------------------| 
A|------------------------|------------------------|--------4----3----------|------------------------| 
E|-2----------2-----------|-2----------2-----------|-5-4----2----1----5-----|---4-----3--5--3--5-----| 
B|-0----0--0--0----0--0---|-0----0--0--0----0--0---|-3-2-0------------3-----|---2-----1--3--1--3-----| 
pm      .  .       .  .          .  .       .  .         . 

B|------------------------|------------------------|------------------------|------------------------| 
G|------------------------|------------------------|------------------------|------------------------| 
D|------------------------|------------------------|------------------------|------------------------| 
A|------------------------|------------------------|--------4----3----------|------------------------| 
E|-2----------2-----------|-2----------2-----------|-5-4----2----1----5-----|---4-----3--5--3--5-----| 
B|-0----0--0--0----0--0---|-0----0--0--0----0--0---|-3-2-0------------3-----|---2-----1--3--1--3-----| 
pm      .  .       .  .          .  .       .  .         . 

B|------------------------|------------------------|------------------------|------------------------| 
G|------------------------|------------------------|------------------------|------------------------| 
D|------------------------|------------------------|------------------------|------------------------| 
A|------------------------|------------------------|--------4----3----------|------------------------| 
E|-2----------2-----------|-2----------2-----------|-5-4----2----1----5-----|---4-----3--5--3--5-----| 
B|-0----0--0--0----0--0---|-0----0--0--0----0--0---|-3-2-0------------3-----|---2-----1--3--1--3-----| 
pm      .  .       .  .          .  .       .  .         . 

B|------------------------|------------------------|------------------------|------------------------| 
G|------------------------|------------------------|------------------------|------------------------| 
D|------------------------|------------------------|------------------------|------------------------| 
A|------------------------|------------------------|--------4----3----------|------------------------| 
E|-2----------2-----------|-2----------2-----------|-5-4----2----1----5-----|---4-----3--5--3--5-----| 
B|-0----0--0--0----0--0---|-0----0--0--0----0--0---|-3-2-0------------3-----|---2-----1--3--1--3-----| 
pm      .  .       .  .          .  .       .  .         . 

Chorus 1:48 
B|------------------------|------------------------|------------------------|------------------------| 
G|------------------------|------------------------|------------------------|------------------------| 
D|---------------3--3--3--|---------------5--5--5--|---------------3--3--3--|-5--5--5--4--4--4-------| 
A|-2----------------------|-2----------------------|-2----------------------|------------------------| 
E|-2-------------1--1--1--|-2-------------3--3--3--|-2-------------1--1--1--|-3--3--3--2--2--2-------| 
B|-0----------------------|-0----------------------|-0----------------------|------------------------| 

B|------------------------|------------------------|------------------------|------------------------| 
G|------------------------|------------------------|------------------------|------------------------| 
D|---------------3--3--3--|---------------5--5--5--|---------------3--3--3--|-5--5--5--4--4--4-------| 
A|-2----------------------|-2----------------------|-2----------------------|------------------------| 
E|-2-------------1--1--1--|-2-------------3--3--3--|-2-------------1--1--1--|-3--3--3--2--2--2-------| 
B|-0----------------------|-0----------------------|-0----------------------|------------------------| 

  2:11 
B|------------------------|------------------------|------------------------|------------------------| 
G|------------------------|------------------------|------------------------|------------------------| 
D|-6----------------------|-5----------------------|-6----------------------|-5----------------------| 
A|------------------------|------------6-----------|------------------------|------------6-----------| 
E|-4----------------------|-3----------------------|-4----------------------|-3----------------------| 
B|------------------------|------------4-----------|------------------------|------------4-----------| 

B|------------------------|------------------------|------------------------|------------------------| 
G|------------------------|------------------------|------------------------|------------------------| 
D|-6----------------------|-5----------------------|-6----------------------|-5----------------------| 
A|------------------------|------------6-----------|------------------------|------------6-----------| 
E|-4----------------------|-3----------------------|-4----------------------|-3----------------------| 
B|------------------------|------------4-----------|------------------------|------------4-----------| 

verse 2:34 
B|------------------------|------------------------|------------------------|------------------------| 
G|------------------------|------------------------|------------------------|------------------------| 
D|------------------------|------------------------|------------------------|------------------------| 
A|------------------------|------------------------|--------4----3----------|------------------------| 
E|-2----------2-----------|-2----------2-----------|-5-4----2----1----5-----|---4-----3--5--3--5-----| 
B|-0----0--0--0----0--0---|-0----0--0--0----0--0---|-3-2-0------------3-----|---2-----1--3--1--3-----| 
pm      .  .       .  .          .  .       .  .         . 

B|------------------------|------------------------|------------------------|------------------------| 
G|------------------------|------------------------|------------------------|------------------------| 
D|------------------------|------------------------|------------------------|------------------------| 
A|------------------------|------------------------|--------4----3----------|------------------------| 
E|-2----------2-----------|-2----------2-----------|-5-4----2----1----5-----|---4-----3--5--3--5-----| 
B|-0----0--0--0----0--0---|-0----0--0--0----0--0---|-3-2-0------------3-----|---2-----1--3--1--3-----| 
pm      .  .       .  .          .  .       .  .         . 

B|------------------------|------------------------|------------------------|------------------------| 
G|------------------------|------------------------|------------------------|------------------------| 
D|------------------------|------------------------|------------------------|------------------------| 
A|------------------------|------------------------|--------4----3----------|------------------------| 
E|-2----------2-----------|-2----------2-----------|-5-4----2----1----5-----|---4-----3--5--3--5-----| 
B|-0----0--0--0----0--0---|-0----0--0--0----0--0---|-3-2-0------------3-----|---2-----1--3--1--3-----| 
pm      .  .       .  .          .  .       .  .         . 

B|------------------------|------------------------|------------------------|------------------------| 
G|------------------------|------------------------|------------------------|------------------------| 
D|------------------------|------------------------|------------------------|------------------------| 
A|------------------------|------------------------|--------4----3----------|------------------------| 
E|-2----------2-----------|-2----------2-----------|-5-4----2----1----5-----|---4-----3--5--3--5-----| 
B|-0----0--0--0----0--0---|-0----0--0--0----0--0---|-3-2-0------------3-----|---2-----1--3--1--3-----| 
pm      .  .       .  .          .  .       .  .         . 

Chorus 3:20 
B|------------------------|------------------------|------------------------|------------------------| 
G|------------------------|------------------------|------------------------|------------------------| 
D|---------------3--3--3--|---------------5--5--5--|---------------3--3--3--|-5--5--5--4--4--4-------| 
A|-2----------------------|-2----------------------|-2----------------------|------------------------| 
E|-2-------------1--1--1--|-2-------------3--3--3--|-2-------------1--1--1--|-3--3--3--2--2--2-------| 
B|-0----------------------|-0----------------------|-0----------------------|------------------------| 

B|------------------------|------------------------|------------------------|------------------------| 
G|------------------------|------------------------|------------------------|------------------------| 
D|---------------3--3--3--|---------------5--5--5--|---------------3--3--3--|-5--5--5--4--4--4-------| 
A|-2----------------------|-2----------------------|-2----------------------|------------------------| 
E|-2-------------1--1--1--|-2-------------3--3--3--|-2-------------1--1--1--|-3--3--3--2--2--2-------| 
B|-0----------------------|-0----------------------|-0----------------------|------------------------| 

3:43 
B|------------------------|------------------------|------------------------|------------------------| 
G|------------------------|------------------------|------------------------|------------------------| 
D|-6----------------------|-5----------------------|-6----------------------|-5----------------------| 
A|------------------------|------------6-----------|------------------------|------------6-----------| 
E|-4----------------------|-3----------------------|-4----------------------|-3----------------------| 
B|------------------------|------------4-----------|------------------------|------------4-----------| 

B|------------------------|------------------------|------------------------|------------------------| 
G|------------------------|------------------------|------------------------|------------------------| 
D|-6----------------------|-5----------------------|-6----------------------|-5----------------------| 
A|------------------------|------------6-----------|------------------------|------------6-----------| 
E|-4----------------------|-3----------------------|-4----------------------|-3----------------------| 
B|------------------------|------------4-----------|------------------------|------------4-----------| 

Bridge 4:05 
B|--------------------------|--------------------------| 
G|--------------------------|--------------------------| 
D|--------------------------|--------------------------| 
A|-----------2------------2-|-----------2------------2-| 
E|-----------2------------2-|-----------2------------2-| 
B|-0--0-0--0-0--0--0-0--0-0-|-0--0-0--0-0--0--0-0--0-0-| 
pm .  . .  .    .  . .  .     .  . .  .    .  . .  .  

B|---------------------------------|-----------------------------| 
G|---------------------------------|-----------------------------| 
D|-------5-------5-------5-------5-|-----------------------------| 
A|-------5-------5-------5-------5-|-----------------------------| 
E|-------3-------3-------3-------3-|----2~------2~----2~------2~-| 
B|-0-0-0---0-0-0---0-0-0---0-0-0---|-1----1-(1)----1----1-(1)----| 

B|---------------------------------|-----------------------------| 
G|---------------------------------|-----------------------------| 
D|-------5-------5-------5-------5-|-----------------------------| 
A|-------5-------5-------5-------5-|-----------------------------| 
E|-------3-------3-------3-------3-|----2~------2~----2~------2~-| 
B|-0-0-0---0-0-0---0-0-0---0-0-0---|-1----1-(1)----1----1-(1)----| 

  4:17 
B|----------------------------------|-------------------------------| 
G|----------------------------------|-------------------------------| 
D|----------------------------------|-------------------------------| 
A|----------------------------------|-5-5-5-4-4-4-3-3-3-----3-3-2-2-| 
E|------------------2-2-2-2-2-2-2-2-|-------------------4-4---------| 
B|-0-0-0-0-0-0-0-0------------------|-------------------------------| 

B|----------------------------------|-------------------------------| 
G|----------------------------------|-------------------------------| 
D|----------------------------------|-------------------------------| 
A|----------------------------------|-5-5-5-4-4-4-3-3-3-----3---2---| 
E|------------------2-2-2-2-2-2-2-2-|-------------------4-----------| 
B|-0-0-0-0-0-0-0-0------------------|-------------------------------| 


B|----------------------------------|-------------------------------| 
G|----------------------------------|-------------------------------| 
D|----------------------------------|-------------------------------| 
A|----------------------------------|-5-5-5-4-4-4-3-3-3-----3-3-2-2-| 
E|------------------2-2-2-2-2-2-2-2-|-------------------4-4---------| 
B|-0-0-0-0-0-0-0-0------------------|-------------------------------| 

B|----------------------------------|-------------------------------| 
G|----------------------------------|-------------------------------| 
D|----------------------------------|-------------------------------| 
A|----------------------------------|/5-----4-----3---------3---2---| 
E|------------------2-2-2-2-2-2-2-2-|-------------------4-----------| 
B|-0-0-0-0-0-0-0-0------------------|-------------------------------| 

Fill 4:32 
B|----------------------------------|-------------------------------| 
G|----------------------------------|-------------------------------| 
D|----------------------------------|-------------------------------| 
A|----------------------------------|-------------------------------| 
E|---------7-----8-----8hb~---------|---------6-----7-----7hb~------| 
B|-5-5-5-5---5-5---5-5--------------|-4-4-4-4---4-4---4-4-----------| 

4:39 under solo 
B|----------------------------------|-------------------------------| 
G|----------------------------------|-------------------------------| 
D|----------------------------------|-------------------------------| 
A|----------------------------------|-5-5-5-4-4-4-3-3-3-----3-3-2-2-| 
E|------------------2-2-2-2-2-2-2-2-|-------------------4-4---------| 
B|-0-0-0-0-0-0-0-0------------------|-------------------------------| 

B|----------------------------------|-------------------------------| 
G|----------------------------------|-------------------------------| 
D|----------------------------------|-------------------------------| 
A|----------------------------------|-5-5-5-4-4-4-3-3-3-----3---2---| 
E|------------------2-2-2-2-2-2-2-2-|-------------------4-----------| 
B|-0-0-0-0-0-0-0-0------------------|-------------------------------| 

B|----------------------------------|-------------------------------| 
G|----------------------------------|-------------------------------| 
D|----------------------------------|-------------------------------| 
A|----------------------------------|-5-5-5-4-4-4-3-3-3-----3-3-2-2-| 
E|------------------2-2-2-2-2-2-2-2-|-------------------4-4---------| 
B|-0-0-0-0-0-0-0-0------------------|-------------------------------| 

B|----------------------------------|-------------------------------| 
G|----------------------------------|-------------------------------| 
D|----------------------------------|-------------------------------| 
A|----------------------------------|/5-----4-----3---------3---2---| 
E|------------------2-2-2-2-2-2-2-2-|-------------------4-----------| 
B|-0-0-0-0-0-0-0-0------------------|-------------------------------| 

Fill 4:53 
B|----------------------------------|-------------------------------| 
G|----------------------------------|-------------------------------| 
D|----------------------------------|-------------------------------| 
A|----------------------------------|-------------------------------| 
E|---------7-----8-----8hb~---------|---------6-----7-----7hb~------| 
B|-5-5-5-5---5-5---5-5--------------|-4-4-4-4---4-4---4-4-----------| 

Chorus 5:00 
B|------------------------|------------------------|------------------------|------------------------| 
G|------------------------|------------------------|------------------------|------------------------| 
D|---------------3--3--3--|---------------5--5--5--|---------------3--3--3--|-5--5--5--4--4--4-------| 
A|-2-------------3--3--3--|-2-------------5--5--5--|-2-------------3--3--3--|-5--5--5--4--4--4-------| 
E|-2-------------1--1--1--|-2-------------3--3--3--|-2-------------1--1--1--|-3--3--3--2--2--2-------| 
B|-0----------------------|-0----------------------|-0----------------------|------------------------| 

B|------------------------|------------------------|------------------------|------------------------| 
G|------------------------|------------------------|------------------------|------------------------| 
D|---------------3--3--3--|---------------5--5--5--|---------------3--3--3--|-5--5--5--4--4--4-------| 
A|-2-------------3--3--3--|-2-------------5--5--5--|-2-------------3--3--3--|-5--5--5--4--4--4-------| 
E|-2-------------1--1--1--|-2-------------3--3--3--|-2-------------1--1--1--|-3--3--3--2--2--2-------| 
B|-0----------------------|-0----------------------|-0----------------------|------------------------| 

Outro 5:16 
B|------------------------|------------------------|------------------------|------------------------| 
G|------------------------|------------------------|------------------------|------------------------| 
D|------------------------|------------------------|------------------------|------------------------| 
A|-2----------------------|-2----------------------|-2----------------------|-2----------------------| 
E|-2----------------------|-2----------------------|-2----------------------|-2----------------------| 
B|-0----------------------|-0----------------------|-0----------------------|-0----------------------| 



************************************ 

| .    Staccato 
| ~    Vibrato 
| (n)  Ghost note 
| /    Slide up 

************************************ 
  

top 5 | gorefest
top rock'n roll
Outras músicas do artista letras do(a) Gorefest
Top cifras »Top artistas »
Petaxxon Comunicação Online
Cifras.com.br - Melhor e mais completo site de cifras e tablaturas do Brasil
Mais de 1 milhão de acordes de músicas cadastradas desde 2003
As informações contidas no nosso site são colaborações de seus usuários e podem conter erros, sendo assim, não nos responsabilizamos sobre nenhuma destas.
close
menos
mais
close
Cor dos acordes:

Cor da letra:

 

save
close
close
 
redimensionar