Cifras e Tablaturas
Grace Petrie

Grace Petrie

Last Breath

Cifras Cancelar Versão de Impressão
cifras

Grace Petrie - Last Breath

fixar na tela  
Exibindo: vídeo-aula ver clipes redimensionar

Tom:

  
Intro 
e|---------0---------------0------|---------0---------------0------| 
B|-----3-----3---------3-----3----|-----1-----1---------1-----1----| 
G|---0---0-----0-----0---0-----0--|---0---0-----0-----0---0-----0--| 
D|-5-------------5---------------5|-3-------------3---------------3| 
A|--------------------------------|--------------------------------| 
E|--------------------------------|--------------------------------| 

e|---------0----------------------|---------0----------------------| 
B|-----1-----1---------1---1------|-----1-----1--------------------| 
G|---0---0-----0-----0---0---0---0|---0---0-----0------------------|  (x2) 
D|-2-------------2-------------2--|-3-------------3----------------| 
A|--------------------------------|--------------------------------| 
E|--------------------------------|--------------------------------| 
  

Verse 
e|---------0---------------0------|---------0---------------0------| 
B|-----3-----3---------3-----3----|-----1-----1---------1-----1----| 
G|---0---0-----0-----0---0-----0--|---0---0-----0-----0---0-----0--| 
D|-5-------------5---------------5|-3-------------3---------------3| 
A|--------------------------------|--------------------------------| 
E|--------------------------------|--------------------------------| 
                         is this the end                     you wanted 

e|---------0----------------------|---------0----------------------| 
B|-----1-----1---------1---1------|-----1-----1--------------------| 
G|---0---0-----0-----0---0---0---0|---0---0-----0------------------| 
D|-2-------------2-------------2--|-3-------------3----------------|  (x4) 
A|--------------------------------|--------------------------------| 
E|--------------------------------|--------------------------------| 

I can't help but feel that its not 
It's not the end that I wanted 
I guess it's the end that we got 

Chorus 
e|--------------------------------|-----0--------------------------| 
B|-----1-----1---1-----1-----1---1|-----------1---1-----1-----1----| 
G|---0-----0---------0-----0------|---0-----0---------0-----0-----0| 
D|-------3-----3---------3-----3--|--------------------------------| 
A|--------------------------------|-3-----3-----3---3-----2-----0--| 
E|-1---------------1--------------|--------------------------------| 
               but I could take my last breath with you on my mind 

e|-----------3--------------------|--------------------------------| 
B|-----0---0-----0-----0-----0---0|-----1-------1-------1-------0--| 
G|---0---------------0-----0------|---0---0---0---0---0---0---0---0| 
D|--------------------------------|--------------------------------|  (x2) 
A|--------------------------------|-0-------2-------3--------------| 
E|-3-----3-----3---3-----3-----3--|-------------------------0------| 
               and never want to  change a single thing I  left behind 

And I could write this story/ in stars upon the sky/ and still you'd close your eyes 
and say good- 

Verse 
e|---------0---------------0------|---------0---------------0------| 
B|-----3-----3---------3-----3----|-----1-----1---------1-----1----| 
G|---0---0-----0-----0---0-----0--|---0---0-----0-----0---0-----0--| 
D|-5-------------5---------------5|-3-------------3---------------3| 
A|--------------------------------|--------------------------------| 
E|--------------------------------|--------------------------------| 
   Bye 

e|---------0----------------------|---------0----------------------| 
B|-----1-----1---------1---1------|-----1-----1--------------------| 
G|---0---0-----0-----0---0---0---0|---0---0-----0------------------| 
D|-2-------------2-------------2--|-3-------------3----------------| 
A|--------------------------------|--------------------------------| 
E|--------------------------------|--------------------------------| 

e|---------0---------------0------|---------0---------------0------| 
B|-----3-----3---------3-----3----|-----1-----1---------1-----1----| 
G|---0---0-----0-----0---0-----0--|---0---0-----0-----0---0-----0--| 
D|-5-------------5---------------5|-3-------------3---------------3| 
A|--------------------------------|--------------------------------| 
E|--------------------------------|--------------------------------| 
             I'll take this single tear        my only souvenir 

e|---------0----------------------|-----3--------------------------| 
B|-----1-----1---------1---1------|-----------0---0-----0-----0---0| 
G|---0---0-----0-----0---0---0---0|---0-----0---------0-----0------| 
D|-2-------------2-------------2--|-----------------------------5--|  (x2) 
A|--------------------------------|--------------------------------| 
E|--------------------------------|-3-----3-----3---3-----3--------| 
                              of a really really fucked up year 

But nothing that you/ can ever say or do/ could take away the things I know in my heart are true 

Middle 8 
e|-----------3---3----------------|-----------3---3----------------| 
B|-----1---------------1-----1---1|-----1---------------1-----1---1| 
G|---0-----0---------0-----0------|---0-----0---------0-----0------| 
D|-------3-----3---------3-----3--|-----------------2-----2-----2--| 
A|--------------------------------|-3-----3-----3------------------| 
E|-1---------------1--------------|--------------------------------| 
             I've never been to china           but I still know it's there 

e|-----------3---3----------------|--------------------------------| 
B|-----1---------------1-----1---1|-----1-----1---1-----1-------1--| 
G|---0-----0---------0-----0------|---0-----0---------0---0---0---0| 
D|-------3-----3---------3-----3--|-------2-----2------------------| 
A|--------------------------------|-3---------------3-------2------| 
E|-1---------------1--------------|--------------------------------| 
        you never let me into your heart   but I'm still allowed to care 

e|-----------0---0----------------|--------------------------------| 
B|-----1---------------1-----1---1|-----1-----1---1-----1-----1----| 
G|---0-----0---------0-----0------|---0-----0---------0-----0-----0| 
D|-------3-----3---------3-----3--|-------2-----2------------------| 
A|--------------------------------|-3---------------3-----2-----0--| 
E|-1---------------1--------------|--------------------------------| 
               and I could take my last breath with you on my mind 

e|-----3--------------------------|-----0--------------------------| 
B|-----------0---------0-----0----|-----1-------1-------1-------0--| 
G|---0-----0-----0---0-----0-----0|---0-------0-------0---0---0---0| 
D|--------------------------------|--------------------------------| 
A|--------------------------------|-0-----0-2-----2-3--------------| 
E|-3-----3-----3---3-----3-----3--|-------------------------3------| 
              And never want to  change a single  thing I  left behind 

e|---------------------------0---0|---------------------------0---0| 
B|-----1-----1---1-----1----------|-----1-----1---1-----1----------| 
G|---0-----0---------0-----0------|---0-----0---------0-----0------| 
D|-------3-----3---------3-----3--|-------2-----2------------------| 
A|--------------------------------|-3---------------3-----3-----0--| 
E|-1---------------1--------------|--------------------------------| 
               and I could write this story     in stars upon the sky 

e|-----------3---3----------------|--------------------------------| 
B|-----0---------------0-----0----|-----1-------1-------1-------0--| 
G|---0-----0---------0-----0-----0|---0---0---0---0---0---0---0---0| 
D|--------------------------------|--------------------------------| 
A|--------------------------------|-0-------2-------3--------------| 
E|-3-----3-----3---3-----3-----3--|-------------------------3------| 
             and still you'd close your eyes   and still you'd say goodbye 

e|-----0--------------------------|-----------0---0----------------| 
B|-----------1---1-----1-----1---1|-----1---------------1-----0----| 
G|---0-----0---------0-----0------|---0-----0---------0-----0-----0| 
D|-------3-----3---------3-----3--|--------------------------------| 
A|--------------------------------|-3-----3-----3---3-----2-----0--| 
E|-1---------------1--------------|--------------------------------| 
                                               and still you'd say goodbye 

e|-----3--------------------------|-----------------------0--------| 
B|-----------0---0-----0-----0---0|-----1-----1-----1-----------1--| 
G|---0-----0---------0-----0------|---0-----0-----0-----0-----0----| 
D|--------------------------------|--------------------------------| 
A|--------------------------------|-0-----------------3-----3------| 
E|-3-----3-----3---3-----3-----3--|-------3-----1------------------| 

Bridge 
e|---------0---------------0------|---------0---------------0------| 
B|-----3-----3---------3-----3----|-----1-----1---------1-----1----| 
G|---0---0-----0-----0---0-----0--|---0---0-----0-----0---0-----0--| 
D|-5-------------5---------------5|-3-------------3---------------3| 
A|--------------------------------|--------------------------------| 
E|--------------------------------|--------------------------------| 

e|---------0----------------------|---------0----------------------| 
B|-----1-----1---------1---1------|-----1-----1--------------------| 
G|---0---0-----0-----0---0---0---0|---0---0-----0------------------| 
D|-2-------------2-------------2--|-3-------------3----------------|  (x2) 
A|--------------------------------|--------------------------------| 
E|--------------------------------|--------------------------------| 

no lyrics first time 
Is this the end you wanted 

Chorus 
e|-----0-----0--------------------|--------------------------------| 
B|---------------1-----1-----1---1|-------1-------------1-----1----| 
G|-0-------0---0-----0-----0------|-----0-----0---0---0-----0-----0| 
D|-3-----3---------------3-----3--|-------------2------------------| 
A|-3------------------------------|-3---------------3-----2-----0--| 
E|-1---------------1--------------|--------------------------------| 
            'Cause I could take my last breath with you   on   my mind 

e|-----3--------------------------|--------------------------------| 
B|-----------0---------0-----0---0|-----1-------1-------1-------0--| 
G|---0-----0-----0---0-----0------|---0---0---0---0---0---0---0---0| 
D|--------------------------------|--------------------------------| 
A|--------------------------------|-0-------2-------3--------------| 
E|-3-----3-----3---3-----3-----3--|-------------------------3------| 
              And never want to  change a single  thing I  left behind 

e|-----------0---0----------------|--------------------------------| 
B|-----1---------------1-----1---1|-----1-----1---1-----1-----1---0| 
G|---0-----0---------0-----0------|---0-----0---------0-----0------| 
D|-------3-----3---------3-----3--|-------2-----2------------------| 
A|--------------------------------|-3---------------3-----2-----0--| 
E|-1---------------1--------------|--------------------------------| 
               And I could write this story   With stars upon the sky 

e|-----3--------------------------|-----0-------0-------0-------3--| 
B|-----------0---------0-----0----|-----1-------1-------1-------0--| 
G|---0-----0-----0---0-----0-----0|---0-------0-------0-------0----| 
D|--------------------------------|--------------------------------| 
A|--------------------------------|-0-----0-2-----2-3-----0--------| 
E|-3-----3-----3---3-----3-----3--|-------------------------3------| 
             And still you'd close your eyes  And still you'd say goodbye 

Outro 
e|-----0--------------------------|-----------0---0----------------| 
B|-----1-----1---1-----1-----1---1|-----1---------------1-----1----| 
G|---0-----0---------0-----0------|---0-----0---------0-----0-----0| 
D|-------3-----3---------3-----3--|-------2-----2------------------| 
A|--------------------------------|-3---------------3-----2-----0--| 
E|-1---------------1--------------|--------------------------------| 
               And I can write this story      In blood and sweat and tears 

e|-----3--------------------------|--------------------------------| 
B|-----------0---------0-----0---0|-----1-------1-------1-------0--| 
G|---0-----0-----0---0-----0------|---0---0---0---0---0---0---0---0| 
D|--------------------------------|--------------------------------| 
A|--------------------------------|-0-------2-------3--------------| 
E|-3-----3-----3---3-----3-----3--|-------------------------3------|  
            And who'd've thought they'd still be telling it in a hundred years                         

e|-----0--------------------------|--------------------------------| 
B|-----------1---------1-----1---1|-----1-----1---1-----1----------| 
G|---0-----0-----0---0-----0------|---0-----0---------0-----0-----0| 
D|-------3-----3---------3-----3--|-------2-----2------------------| 
A|--------------------------------|-3---------------3-----2-----0--| 
E|-1---------------1--------------|--------------------------------| 
               And I could take my last breath     Long before my time              

e|-----3--------------------------|--------------------------------|-0----| 
B|-----------0---0-----0-----0---0|-----1-------1-------1-------0--|-1----| 
G|---0-----0---------0-----0------|---0-0-----0-0-----0-0-----0-0--|-0----| 
D|--------------------------------|--------------------------------|-3----| 
A|--------------------------------|-0-----0-2-----0-3-----0--------|-3----| 
E|-3-----3-----3---3-----3-----3--|-------------------------3------|-1----| 
              And with you on my mind               I think I'd be  fine 
  

top 5 | grace petrie
top rock alternativo
Outras músicas do artista letras do(a) Grace Petrie
4.
Iago
Top cifras »Top artistas »
Petaxxon Comunicação Online
Cifras.com.br - Melhor e mais completo site de cifras e tablaturas do Brasil
Mais de 1 milhão de acordes de músicas cadastradas desde 2003
As informações contidas no nosso site são colaborações de seus usuários e podem conter erros, sendo assim, não nos responsabilizamos sobre nenhuma destas.
close
menos
mais
close
Cor dos acordes:

Cor da letra:

 

save
close
close
 
redimensionar