Cifras e Tablaturas
Green Day

Green Day

Bang Bang

Cifras Cancelar Versão de Impressão
cifras

Green Day - Bang Bang

fixar na tela  
Exibindo: vídeo-aula ver clipes redimensionar

Tom:

  
Intro: 

E|----------------------------------| 
B|----------------------------------| 
G|----------------------------------| 
D|-7----7----7----7-----------------| 
A|-x----x----x----x-----------------| 
E|-5----5----5----5-----------------| 

E|-----------------------------------------------------------| 
B|-----------------------------------------------------------| 
G|--------------10--10--10-10-10--7--7--7-7-7---7-7--7-7-7---|   
D|-7--7--7-7-7--10--10--10-10-10--7--7--7-7-7---7-7--7-7-7---| 
A|-7--7--7-7-7--8---8---8--8--8---5--5--5-5-5---5-5--5-5-5---| 
E|-5--5--5-5-5-----------------------------------------------|      

E|-----------------------------------------------------------|  
A|-----------------------------------------------------------| 
D|---------------10-10--10-10-10---5--5--5-5-5--9--9--9-9-9--| 
G|-7--7--7-7-7---10-10--10-10-10---5--5--5-5-5--9--9--9-9-9--|  
B|-7--7--7-7-7---8--8---8--8--8----3--3--3-3-3--7--7--7-7-7--|  
E|-5--5--5-5-5-----------------------------------------------|  

E|-----------------------------------------------------------| 
B|-----------------------------------------------------------| 
G|--------------10--10--10-10-10--7--7--7-7-7---7-7--7-7-7---| 
D|-7--7--7-7-7--10--10--10-10-10--7--7--7-7-7---7-7--7-7-7---| 
A|-7--7--7-7-7--8---8---8--8--8---5--5--5-5-5---5-5--5-5-5---| 
E|-5--5--5-5-5-----------------------------------------------|         

E|-----------------------------------------------------------| 
A|-----------------------------------------------------------|     
D|--------------10-10--10-10-10---5--5--5-5-5--9--9-9--------|    
G|-7--7--7-7-7--10-10--10-10-10---5--5--5-5-5--9--9-9--------| 
B|-7--7--7-7-7--8--8---8--8--8----3--3--3-3-3--7--7-7--------| 
E|-5--5--5-5-5-----------------------------------------------| 

E|---------------------------------------------------| 
A|---------------------------------------------------|     
D|--------------------7-x----------------------------|  
G|-5-x-7----x-x-x-----7-x-7---x-x-x------------------| 
B|-5-x-7----x-x-x-----5-x-7---x-x-x------------------| 
E|-3-x-5----x-x-x---------5---x-x-x------------------| 


Verse 

E|----------------------------| 
B|----------------------------| 
G|--------7-7-7-7-------------| 
D|-2-5-7--7-7-7-7-7-----------|        x3 
A|-2-5-7--5-5-5-5-7-----------| 
E|-0-3-5----------5-----------| 

E|------------------------------------------| 
B|------------------------------------------| 
G|-7-7-7-------------7-7-7-7-7--------------| 
D|-7-7-7--5-5-5-5-5--7-7-7-7-7--7-7-7-7-7---| 
A|-5-5-5--5-5-5-5-5--5-5-5-5-5--7-7-7-7-7---| 
E|--------3-3-3-3-3-------------5-5-5-5-5---| 

E|----------------------------| 
B|----------------------------| 
G|--------7-7-7-7-------------| 
D|-2-5-7--7-7-7-7-7-----------|  
A|-2-5-7--5-5-5-5-7-----------| 
E|-0-3-5----------5-----------| 

E|------------------------------------------| 
B|------------------------------------------| 
G|-7-7-7-------------7-7-7-7-7--------------| 
D|-7-7-7--5-5-5-5-5--7-7-7-7-7--7-7-7-7-7---| 
A|-5-5-5--5-5-5-5-5--5-5-5-5-5--7-7-7-7-7---| 
E|--------3-3-3-3-3-------------5-5-5-5-5---| 


Chorus 

E|-----------------------------------------------------------------------------------------------------------| 
B|-----------------------------------------------------------------------------------------------------------| 
G|--------------10--10--10-10-10--7--7--7-7-7--------------------10-10--10-10-10---5--5--5-5-5--9--9--9-9-9--| 
D|-7--7--7-7-7--10--10--10-10-10--7--7--7-7-7------7--7--7-7-7---10-10--10-10-10---5--5--5-5-5--9--9--9-9-9--| 
A|-7--7--7-7-7--8---8---8--8--8---5--5--5-5-5------7--7--7-7-7---8---8---8--8--8---3--3--3-3-3--7--7--7-7-7--| 
E|-5--5--5-5-5-------------------------------------5--5--5-5-5-----------------------------------------------| 

E|----------------------------------------------------------------------------------------------------| 
B|----------------------------------------------------------------------------------------------------| 
G|--------------10--10--10-10-10--7--7--7-7-7--------------------10-10--10-10-10---5--5--5-5-5--9-9---| 
D|-7--7--7-7-7--10--10--10-10-10--7--7--7-7-7------7--7--7-7-7---10-10--10-10-10---5--5--5-5-5--9-9---| 
A|-7--7--7-7-7--8---8---8--8--8---5--5--5-5-5------7--7--7-7-7---8---8---8--8--8---3--3--3-3-3--7-7---| 
E|-5--5--5-5-5-------------------------------------5--5--5-5-5----------------------------------------| 

E|----------------------------------------------------------------------------------------------------| 
B|----------------------------------------------------------------------------------------------------| 
G|--------------10--10--10-10-10--7--7--7-7-7--------------------10-10--10-10-10---5--5--5-5-5--9-9---| 
D|-7--7--7-7-7--10--10--10-10-10--7--7--7-7-7------7--7--7-7-7---10-10--10-10-10---5--5--5-5-5--9-9---| 
A|-7--7--7-7-7--8---8---8--8--8---5--5--5-5-5------7--7--7-7-7---8---8---8--8--8---3--3--3-3-3--7-7---| 
E|-5--5--5-5-5-------------------------------------5--5--5-5-5----------------------------------------| 


Verse 
   
E|----------------------------| 
B|----------------------------| 
G|--------7-7-7-7-------------| 
D|-2-5-7--7-7-7-7-7-----------|  
A|-2-5-7--5-5-5-5-7-----------| 
E|-0-3-5----------5-----------| 

E|------------------------------------------| 
B|------------------------------------------| 
G|-7-7-7-------------7-7-7-7-7--------------| 
D|-7-7-7--5-5-5-5-5--7-7-7-7-7--7-7-7-7-7---| 
A|-5-5-5--5-5-5-5-5--5-5-5-5-5--7-7-7-7-7---| 
E|--------3-3-3-3-3-------------5-5-5-5-5---| 

E|----------------------------| 
B|----------------------------| 
G|--------7-7-7-7-------------| 
D|-2-5-7--7-7-7-7-7-----------|  
A|-2-5-7--5-5-5-5-7-----------| 
E|-0-3-5----------5-----------| 


E|------------------------------------------| 
B|------------------------------------------| 
G|-7-7-7-------------7-7-7-7-7--------------| 
D|-7-7-7--5-5-5-5-5--7-7-7-7-7--7-7-7-7-7---| 
A|-5-5-5--5-5-5-5-5--5-5-5-5-5--7-7-7-7-7---| 
E|--------3-3-3-3-3-------------5-5-5-5-5---| 


Chorus 

E|----------------------------------------------------------------------------------------------------| 
B|----------------------------------------------------------------------------------------------------| 
G|-------10--10--10-10-10--7--7--7-7-7---------------------5--5--5-5-5--10--10--10-10-10-7--7--7-7-7--| 
D|-7x----10--10--10-10-10--7--7--7-7-7-------7--7--7-7-7---5--5--5-5-5--10--10--10-10-10-7--7--7-7-7--| x2 
A|-7x----8---8---8--8--8---5--5--5-5-5-------7--7--7-7-7---3--3--3-3-3--8---8---8--8--8--5--5--5-5-5--| 
E|-5x----------------------------------------5--5--5-5-5----------------------------------------------| 


Bridge  

E|------------------------------------------------------| 
B|------------------------------------------------------| 
G|---------------------------------------7--7--7-7-7----| 
D|-7--7--7-7-7--7--7-7-7-7--4--4--4-4-4--7--7--7-7-7----| x3 
A|-7--7--7-7-7--7--7-7-7-7--4--4--4-4-4--5--5--5-5-5----| 
E|-5--5--5-5-5--5--5-5-5-5--2--2--2-2-2-----------------| 


E|----------------------------------------------------------------| 
B|----------------------------------------------------------------| 
G|------------------5--5--5-5-5--10--10--10-10-10-7--7--7-7-7-----| 
D|----7--7--7-7-7---5--5--5-5-5--10--10--10-10-10-7--7--7-7-7-----|  
A|----7--7--7-7-7---3--3--3-3-3--8---8---8--8--8--5--5--5-5-5-----| 
E|----5--5--5-5-5-------------------------------------------------| 


SOLO 
it sounds like billie is playing octaves while jason is playing an E chord under the solo,  
however, it sounds fine either way. 


E|--------------4-4-4--5--7-7-7--5--4-4-4--8-8-8-7-5-5-5---------------| 
B|-----5-5-5--6--------------------------------------------------------| 
G|--------------1-1-1--2--4-4-4--2--1-1-1--5-5-5-4-2-2-2---------------| 
D|-2~--2-2-2--3------------------------------------------2-3-2-0-------| 
A|-2~------------------------------------------------------------3-----| 
E|-0~------------------------------------------------------------------| 


E|--------------4-4-4--5--7-7-7--5--4-4-4--8-8-8-7-5-5-5-----------------| 
B|-----5-5-5--6----------------------------------------------------------| 
G|--------------1-1-1--2--4-4-4--2--1-1-1--5-5-5-4-2-2-2-----------------| 
D|-----2-2-2--3------------------------------------------2-3-2-0---------| 
A|---------------------------------------------------------------3-5-3-2-| 
E|-----------------------------------------------------------------------| 


   I wanna be... 
E|-----------------------------------------------------------------| 
B|-----------------------------------------------------------------| 
G|----------1-1-1-1-------------------------------1-1-1-1-----3----| 
D|-2-2-2--3-----------------2-2-2-2------2-2-2--3----------3--3----| x2 
A|---------------------------------------------------------3--1----| 
E|------------------1-1-1-1--------------------------------1-------| 

Chorus 
   
E|-----------------------------------------------------------------------------------------------------------| 
B|-----------------------------------------------------------------------------------------------------------| 
G|--------------10--10--10-10-10--7--7--7-7-7--------------------10-10--10-10-10---5--5--5-5-5--9--9--9-9-9--| 
D|-7--7--7-7-7--10--10--10-10-10--7--7--7-7-7------7--7--7-7-7---10-10--10-10-10---5--5--5-5-5--9--9--9-9-9--| 
A|-7--7--7-7-7--8---8---8--8--8---5--5--5-5-5------7--7--7-7-7---8---8---8--8--8---3--3--3-3-3--7--7--7-7-7--| 
E|-5--5--5-5-5-------------------------------------5--5--5-5-5-----------------------------------------------| 

E|----------------------------------------------------------------------------------------------------| 
B|----------------------------------------------------------------------------------------------------| 
G|--------------10--10--10-10-10--7--7--7-7-7--------------------10-10--10-10-10---5--5--5-5-5--------| 
D|-7--7--7-7-7--10--10--10-10-10--7--7--7-7-7------7--7--7-7-7---10-10--10-10-10---5--5--5-5-5--------| 
A|-7--7--7-7-7--8---8---8--8--8---5--5--5-5-5------7--7--7-7-7---8---8---8--8--8---3--3--3-3-3--------| 
E|-5--5--5-5-5-------------------------------------5--5--5-5-5----------------------------------------| 


--DRUM BREAK-- 


Outro 
    
E|------------------------------------------------------| 
B|------------------------------------------------------| 
G|---------------------------------------7--7--7-7-7----| 
D|-7--7--7-7-7--7--7-7-7-7--4--4--4-4-4--7--7--7-7-7----| x3 
A|-7--7--7-7-7--7--7-7-7-7--4--4--4-4-4--5--5--5-5-5----| 
E|-5--5--5-5-5--5--5-5-5-5--2--2--2-2-2-----------------| 


E|----------------------------------------------------------------| 
B|----------------------------------------------------------------| 
G|------------------5--5--5-5-5--10--10--10-10-10-7--7--7-7-7-----| 
D|----7--7--7-7-7---5--5--5-5-5--10--10--10-10-10-7--7--7-7-7-----|  
A|----7--7--7-7-7---3--3--3-3-3--8---8---8--8--8--5--5--5-5-5-----| 
E|----5--5--5-5-5-------------------------------------------------| 

E|------------------------------------------------------| 
B|------------------------------------------------------| 
G|---------------------------------------7--7--7-7-7----| 
D|-7--7--7-7-7--7--7-7-7-7--4--4--4-4-4--7--7--7-7-7----| x3 
A|-7--7--7-7-7--7--7-7-7-7--4--4--4-4-4--5--5--5-5-5----| 
E|-5--5--5-5-5--5--5-5-5-5--2--2--2-2-2-----------------| 


E|------------------------------------------------------------| 
B|------------------------------------------------------------| 
G|------------------5--5--5-5-5--10--10--10-10-10---7---------| 
D|----7--7--7-7-7---5--5--5-5-5--10--10--10-10-10---7---------|  
A|----7--7--7-7-7---3--3--3-3-3--8---8---8--8--8----5---------| 
E|----5--5--5-5-5---------------------------------------------| 
  

top 5 | green day
top punk rock
Outras músicas do artista letras do(a) Green Day
4.
She
Top cifras »Top artistas »
Petaxxon Comunicação Online
Cifras.com.br - Melhor e mais completo site de cifras e tablaturas do Brasil
Mais de 1 milhão de acordes de músicas cadastradas desde 2003
As informações contidas no nosso site são colaborações de seus usuários e podem conter erros, sendo assim, não nos responsabilizamos sobre nenhuma destas.
close
menos
mais
close
Cor dos acordes:

Cor da letra:

 

save
close
close
 
redimensionar