Cifras e Tablaturas
Green Day

Green Day

J.A.R

Ano: 2001
Album : International Superhits!

Cifras Cancelar Versão de Impressão

Green Day - J.A.R

Tom:

  			Intro depois do baixo
      
                       Repete 2x essa parte
E-|------------|-----------------------------------------------|
B-|------------|-----------------------------------------------|
G-|----6-------|----------------------------------6-6-6--------|
D-|----6--6--4-|-4-4-4-4-4--6-6-6-6-6--4-4-4-4-4--6-6-6--6-6-6-|
A-|----4--6--4-|-4-4-4-4-4--6-6-6-6-6--4-4-4-4-4--4-4-4--6-6-6-|
E-|-------4--2-|-2-2-2-2-2--4-4-4-4-4--2-2-2-2-2---------4-4-4-|


Verso 4x
     
|-----------------------------------------------|
|-----------------------------------------------|
|----------------------------------6-6-6--------|
|-4-4-4-4-4--6-6-6-6-6--4-4-4-4-4--6-6-6--6-6-6-|
|-4-4-4-4-4--6-6-6-6-6--4-4-4-4-4--4-4-4--6-6-6-|
|-2-2-2-2-2--4-4-4-4-4--2-2-2-2-2---------4-4-4-|

Refrão

|-------------------------------------------------------------------------------|
|-------------------------------------------------------------------------------|
|----------------6-6-6-6-6-6-6---------------------------6-6-6-6----------------|
|-4-4-4-4-4-4-4--6-6-6-6-6-6-6--6-6-6-6-6-6-6--4-4-4-4---6-6-6-6---6-6-6-6-6-6-6|
|-4-4-4-4-4-4-4--4-4-4-4-4-4-4--6-6-6-6-6-6-6--4-4-4-4---4-4-4-4---6-6-6-6-6-6-6|
|-2-2-2-2-2-2-2-----------------4-4-4-4-4-4-4--2-2-2-2-------------4-4-4-4-4-4-4|

Break depois do refrão 2x

|------------------------------|
|------------------------------|
|--------6-6-6---------6-6-6---|
|-4-4-4--6-6-6--6-6-6--6-6-6---|
|-4-4-4--4-4-4--6-6-6--4-4-4---|
|-2-2-2---------4-4-4----------|


Verso 2                         
                                Repete 4x
E-|------------|-----------------------------------------------|
B-|------------|-----------------------------------------------|
G-|----6-------|----------------------------------6-6-6--------|
D-|----6--6--4-|-4-4-4-4-4--6-6-6-6-6--4-4-4-4-4--6-6-6--6-6-6-|
A-|----4--6--4-|-4-4-4-4-4--6-6-6-6-6--4-4-4-4-4--4-4-4--6-6-6-|
E-|-------4--2-|-2-2-2-2-2--4-4-4-4-4--2-2-2-2-2---------4-4-4-|

Refrão

|-------------------------------------------------------------------------------|
|-------------------------------------------------------------------------------|
|----------------6-6-6-6-6-6-6---------------------------6-6-6-6----------------|
|-4-4-4-4-4-4-4--6-6-6-6-6-6-6--6-6-6-6-6-6-6--4-4-4-4---6-6-6-6---6-6-6-6-6-6-6|
|-4-4-4-4-4-4-4--4-4-4-4-4-4-4--6-6-6-6-6-6-6--4-4-4-4---4-4-4-4---6-6-6-6-6-6-6|
|-2-2-2-2-2-2-2-----------------4-4-4-4-4-4-4--2-2-2-2-------------4-4-4-4-4-4-4|

Break depois do refrão 4x

|------------------------------|
|------------------------------|
|--------6-6-6---------6-6-6---|
|-4-4-4--6-6-6--6-6-6--6-6-6---|
|-4-4-4--4-4-4--6-6-6--4-4-4---|
|-2-2-2---------4-4-4----------|

Outro verso 2x Abafado

|----------------------------------------------|
|----------------------------------------------|
|-4-4-4-4-4---------------6-6-6-6-6------------|
|-4-4-4-4-4--4-4-4-4-4-4--6-6-6-6-6--6-6-6-6-6-|
|-2-2-2-2-2--4-4-4-4-4-4--4-4-4-4-4--6-6-6-6-6-|
|------------2-2-2-2-2-2-------------4-4-4-4-4-|

Repete a intro com esse solo:
3x                                                    fim do solo
|---------------------------------------------------|------------------------------------------|
|---------------------------------------------------|------------------------------------------|
|---6-6-6-6-6-6-3/4-3-4-3-4-6-6-6-6-6-6/10-8-10-8-6-|6-6-6-6-6-6-3/4-3-4-3-4-6-6-6-6-6-6/13-13-|
|---------------------------------------------------|------------------------------------------|
|---------------------------------------------------|------------------------------------------|
|---------------------------------------------------|------------------------------------------|

Refrão

|-------------------------------------------------------------------------------|
|-------------------------------------------------------------------------------|
|----------------6-6-6-6-6-6-6---------------------------6-6-6-6----------------|
|-4-4-4-4-4-4-4--6-6-6-6-6-6-6--6-6-6-6-6-6-6--4-4-4-4---6-6-6-6---6-6-6-6-6-6-6|
|-4-4-4-4-4-4-4--4-4-4-4-4-4-4--6-6-6-6-6-6-6--4-4-4-4---4-4-4-4---6-6-6-6-6-6-6|
|-2-2-2-2-2-2-2-----------------4-4-4-4-4-4-4--2-2-2-2-------------4-4-4-4-4-4-4|

Break depois do refrão 4x

|------------------------------|
|------------------------------|
|--------6-6-6---------6-6-6---|
|-4-4-4--6-6-6--6-6-6--6-6-6---|
|-4-4-4--4-4-4--6-6-6--4-4-4---|
|-2-2-2---------4-4-4----------|

E termina a música no baixo


_______________________________________________________
Contribuição: Conrado Fonseca Marques([email protected])
    	
fixar
fixar inscrever-se

enviado porenviado por: anônimo
cifra enviadaCorrigida por: sem correções
logo top cifrasComente
ico música do artistaMúsicas deste artista
ico curtiuCurtiu?
ico destaqueDestaque
Petaxxon Comunicação Online

Cifras.com.br - Melhor e mais completo site de cifras e tablaturas do Brasil Mais de 1 milhão de acordes de músicas cadastradas desde 2003
As informações contidas no nosso site são colaborações de seus usuários e podem conter erros, sendo assim, não nos responsabilizamos sobre nenhuma destas.

close
menos
mais
close
Cor dos acordes:

Cor da letra:

close
Alinhar acordes a direita Alinhar acordes a esquerda Alinhar acordes em baixo Alinhar acordes no topo
close
  Mostrar todos os acordes Esconder acordes muito fáceis Esconder acordes fáceis Esconder acordes intermediários
redimensionar
glossário