Cifras e Tablaturas
Green Day

Green Day

Makeout Party

Cifras Cancelar Versão de Impressão Print

Green Day - Makeout Party

Tom:

  			




  Intro:         Verse 1: 
  |4x*********|      |3x************| 
|---------------------------------------------------| 
|---------------------------------------------------| 
|---------------------------------------------------| 
|-7x5x7x10x7x5x--7\--7x5x7x10x7x5x-7\--7x5x7x10x7x0-| 
|-7x5x7x10x7x5x--7\--7x5x7x10x7x5x-7\--7x5x7x10x7x0-| 
|-5x3x5x8-x5x3x--5\--5x3x5x8-x5x3x-5\--5x3x5x8-x5x0-| 

  Chorus: 
|----------------------------------------------------------| 
|----------------------------------------------------------| 
|-7-7-7-7777777--7-7-7-7777777-----------------------------| 
|-7-7-7-7777777--7-7-7-7777777--7x5x7x10x7x5x-7x5x7x10x7x0-| 
|-5-5-5-5555555--5-5-5-5555555--7x5x7x10x7x5x-7x5x7x10x7x0-| 
|-------------------------------5x3x5x8-x5x3x-5x3x5x8-x5x0-| 

                                            Verse 2: 
                                            |4x************| 
|------------------------------------------------------------| 
|------------------------------------------------------------| 
|-9-9-9-9999999--7-7-7-77777---------------------------------| 
|-9-9-9-9999999--7-7-7-77777--7x5x7x10x7x5x-7x5x7x10x7x5x-7\-| 
|-7-7-7-7777777--5-5-5-55555--7x5x7x10x7x5x-7x5x7x10x7x5x-7\-| 
|-0-0-0-0000000---------------5x3x5x8-x5x3x-5x3x5x8-x5x3x-5\-| 

                Chorus: 
|------------------------------------------------------------------------| 
|------------------------------------------------------------------------| 
|---------------7-7-7-7777777--7-7-7-7777777-----------------------------| 
|-7x5x7x10x7x0--7-7-7-7777777--7-7-7-7777777--7x5x7x10x7x5x-7x5x7x10x7x0-| 
|-7x5x7x10x7x0--5-5-5-5555555--5-5-5-5555555--7x5x7x10x7x5x-7x5x7x10x7x0-| 
|-5x3x5x8-x5x0--------------------------------5x3x5x8-x5x3x-5x3x5x8-x5x0-| 

|---------------------------------------------------------| 
|---------------------------------------------------------| 
|-9-9-9-9999999--7-7-7-77777------------------------------| 
|-9-9-9-9999999--7-7-7-77777--7x5x7x10x7x5x-7x5x7x10x7x5x-| 
|-7-7-7-7777777--5-5-5-55555--7x5x7x10x7x5x-7x5x7x10x7x5x-| 
|-0-0-0-0000000---------------5x3x5x8-x5x3x-5x3x5x8-x5x3x-| 

 Guitar-Solo: 
|--------------------------------------------------------| 
|-5-5--5--5--5-5-\---------------5-5-5--5-5--5--5-5h---5-| 
|-7b7b-7b-7b-7b7b\---------------7b7b7b-7b7b-7b-7b7b-7-6-| 
|------------------7x5x7x10x7x5x-------------------------| 
|------------------7x5x7x10x7x5x-------------------------| 
|------------------5x3x5x8-x5x3x-------------------------| 

|----------------------------------------------------| 
|---------------5-5-5-/10--10--10-10-\---------------| 
|---------------7b7b7b/12b-12b-12b12b\---------------| 
|-7x5x7x10x7x5x------------------------7x5x7x10x7x5x-| 
|-7x5x7x10x7x5x------------------------7x5x7x10x7x5x-| 
|-5x3x5x8-x5x3x------------------------5x3x5x8-x5x3x-| 

|-***17-***-------------------------------------------------------------| 
|-***20b***--------------10--10--10~--12h13h15p--12h13h15p--12h13h15p---| 
|------------------------12b-12b-12b~----------14---------14---------14-| 
|-----------7x5x7x10x7x0------------------------------------------------| 
|-----------7x5x7x10x7x0------------------------------------------------| 
|-----------5x3x5x8-x5x0------------------------------------------------| 

|---------------------------------------------------55-| 
|12h13h15p--12h13h15p--12h13h15p---13b--------------55-| 
|---------14---------14---------14------55h7p5--5-7b---| 
|---------------------------------------------7--------| 
|------------------------------------------------------| 
|------------------------------------------------------| 

|-------------------------------------------------------------------(5)~----| 
|-------------------------------------12--12--12~--12-/17--17--17-----------| 
|5h7p5--------------------------------14b-14b-14b~-14b/19b-19b-19b----------| 
|-----7-5-------------------------------------------------------------------| 
|---------7-5-3-0-------------------------------------------------\---------| 
|-----------------3-0-/5~\3~/5~/8~\5/-----------------------------\-(5)~-/\-| 

 Bass-Solo (2.15 min.): 
|--------------------------------------------------------------| 
|--------------------------------------------------------------| 
|---------------------------2----------------------------------| 
|-------------------------25-----------------------------------| 
|----0-3--------------35-5---------0-3--------------35-5h7p530-| 
|5-3-----0-3--5-3-5-35---------5-3-----0-3--5-3-5-35-----------| 

|------------------------------------------------------------| 
|------------------------------------------------------------| 
|------------------------------------------------------------| 
|-------------5h777777-75---------------------------------25-| 
|----0-3-----------------75530-------0-3--------------35-5---| 
|5-3-----0-3------------------3--5-3-----0-3--5-3-5-35-------| 

|---------------------------------------------------------------------------| 
|---------------------------------------------------------------------------| 
|-------------------------------------------------------------------------2-| 
|7777-7777-7777-77/\---------------777-555------------------------------25--| 
|-------------------------0-3--------------777-555-5-3-0------------35-5----| 
|---------------------5-3-----0-3------------------------3--5-3-5-35--------| 

  Chorus: 
|----------------------------------------------------------| 
|----------------------------------------------------------| 
|-7-7-7-7777777--7-7-7-7777777-----------------------------| 
|-7-7-7-7777777--7-7-7-7777777--7x5x7x10x7x5x-7x5x7x10x7x0-| 
|-5-5-5-5555555--5-5-5-5555555--7x5x7x10x7x5x-7x5x7x10x7x0-| 
|-------------------------------5x3x5x8-x5x3x-5x3x5x8-x5x0-| 

                              Outro: 
                              |4x*********| 
|----------------------------------------------| 
|----------------------------------------------| 
|-9-9-9-9999999--7-7-7-77777-------------------| 
|-9-9-9-9999999--7-7-7-77777--7x5x7x10x7x5x-7\-| 
|-7-7-7-7777777--5-5-5-55555--7x5x7x10x7x5x-7\-| 
|-0-0-0-0000000---------------5x3x5x8-x5x3x-5\-| 
    	
fixar
fixar inscrever-se

enviado porenviado por: marcnagel
cifra enviadaCorrigida por: sem correções
logo top cifrasComente
ico música do artistaMúsicas deste artista
ico curtiuCurtiu?
ico destaqueDestaque
Petaxxon Comunicação Online

Cifras.com.br - Melhor e mais completo site de cifras e tablaturas do Brasil Mais de 1 milhão de acordes de músicas cadastradas desde 2003
As informações contidas no nosso site são colaborações de seus usuários e podem conter erros, sendo assim, não nos responsabilizamos sobre nenhuma destas.

close
menos
mais
close
Cor dos acordes:

Cor da letra:

close
Alinhar acordes a direita Alinhar acordes a esquerda Alinhar acordes em baixo Alinhar acordes no topo
close
  Mostrar todos os acordes Esconder acordes muito fáceis Esconder acordes fáceis Esconder acordes intermediários
redimensionar
glossário