Cifras e Tablaturas
Green Day

Green Day

Oh Love Tablatura Verificada

Compositor : (Billie Joe Armstrong)

Cifras Cancelar Versão de Impressão
cifras

Green Day - Oh Love

fixar na tela  
Exibindo: vídeo-aula ver clipes redimensionar

Tom:

  
Verse:  
e|-------------------------------------------------|----------------|  
B|---------------6----------------6--6--6-6-6-6-6-6|-------------6--|  
G|---------------6----------------6--6--6-6-6-6-6-6|-------------6--|  
D|--6-6--x--x--x-6--6-6--x--x--x--6--6--6-6-6-6-6-6|6-6--x--x--x-6--|  
A|--6-6--x--x--x-4--6-6--x--x--x--4--4--4-4-4-4-4-4|6-6--x--x--x-4--|  
E|--4-4--x--x--x----4-4--x--x--x-------------------|4-4--x--x--x----|  
                                                   |  
                                                   |Stop here for the last time of   
                                                    the verse and go to Pre-Choru 
Pre-Chorus:  

e|-----------------------------------------------|  
B|-----------------------------------------------|  
G|--6--6--6-----8-8-8-8-8-8-8-8-8-8-8-8-8-8-8-8--|  
D|--6--6--6--6--8-8-8-8-8-8-8-8-8-8-8-8-8-8-8-8--|  
A|--4--3--4--6--6-6-6-6-6-6-6-6-6-6-6-6-6-6-6-6--|  
E|-----------4-----------------------------------|  

Chorus:  
e|-------------------------------------------------------------------|  
B|-------------------------------------------------------------------|  
G|----------8-8-8-8---------6-6-6-6---------8-8-8-8---------8-8-8-8--|  
D|--6-6-6-6-8-8-8-8-6-6-6-6-6-6-6-6-6-6-6-6-8-8-8-8-6-6-6-6-8-8-8-8--|  
A|--6-6-6-6-6-6-6-6-6-6-6-6-4-4-4-4-6-6-6-6-6-6-6-6-6-6-6-6-6-6-6-6--|  
E|--4-4-4-4---------4-4-4-4---------4-4-4-4---------4-4-4-4----------|  

e|--------------------------------------------------|  
B|--------------------------------------------------|  
G|----------8-8-8-8---------6-6-6-6---------8-8-8-8-|  
D|--6-6-6-6-8-8-8-8-6-6-6-6-6-6-6-6-6-6-6-6-8-8-8-8-|  
A|--6-6-6-6-6-6-6-6-6-6-6-6-4-4-4-4-6-6-6-6-6-6-6-6-|  
E|--4-4-4-4---------4-4-4-4---------4-4-4-4---------|  


Bridge: 
e|---------------------------------------------------------------------|  
B|---------------------------------------------------------------------|  
G|------------------6-6----6-6-----------------6-6---6-6---------------|  
D|--6-6-6-6-6-6-4---6-6----6-6---6-6---6-6-4---6-6---6-6---6-6---6-6-4-|  
A|--6-6-6-6-6-6-4---4-4----4-4---6-6---6-6-4---4-4---4-4---6-6---6-6-4-|  
E|--4-4-4-4-4-4-2----------------4-4---4-4-2---------------4-4---4-4-2-|  

e|---------------------------------------------------------|  
B|---------------------------------------------------------|  
G|--6-6---6-6--------8-10-10--6--6--6-----8-8-8-8-8-8-8-8--|  
D|--6-6---6-6---6-6--8-10-10--6--6--6--6--8-8-8-8-8-8-8-8--|  
A|--4-4---4-4---6-6--6-8--8---4--3--4--6--6-6-6-6-6-6-6-6--|  
E|--------------4-4--------------------4-------------------|  


Solo: 


e|-------------------------------------------------------| 
B|-------------------------------------------------------| 
G|---------------------3~-3--1-3-3/5-5~--3-5-5/6-6~--5-6-| 
D|-------3-5-6~-6--5-6-----------------------------------| 
A|-------------------------------------------------------| 
E|-\10/--------------------------------------------------| 

e|------4---------------------------------------4------------------| 
B|-----4-4-7b9r7-4----------------------------4---7b9r7b9r7b9~~/-\-| 
G|-6b8-------------6-6b8r6p4----4-6p4---4-6b8----------------------| 
D|----------------------------6-------6----------------------------| 
A|-----------------------------------------------------------------| 
E|-----------------------------------------------------------------| 

e|--------------------------------------------------------------| 
B|-9~~-9~~-8-9-9/11~~-11~~-9-11-11/13~~-13~~-11-13-13/14~~-14~~-| 
G|--------------------------------------------------------------| 
D|--------------------------------------------------------------| 
A|--------------------------------------------------------------| 
E|--------------------------------------------------------------| 

e|------------------------------------13-15~~-15-16-18~~-18-20-| 
B|-11-13-14~~-13~~-14~~------16~~~-16--------------------------| 
G|----------------------13~~-----------------------------------| 
D|-------------------------------------------------------------| 
A|-------------------------------------------------------------| 
E|-------------------------------------------------------------| 

e|-21-18-21b23~~\--| 
B|-----------------| 
G|-----------------| 
D|-----------------| 
A|-----------------| 
E|-----------------| 


End  
e|--------------------------------------------------------------------------|  
B|--------------------------------------------------------------------------|  
G|-----------8-8-8-8---------8--8-----------8-8-8-8--------8--8-------6-----|  
D|--6-6-6-6--8-8-8-8---6--6--8--8--6-6-6-6--8-8-8-8--6--6--8--8--6-6--6--6--|  
A|--6-6-6-6--6-6-6-6---6--6--6--6--6-6-6-6--6-6-6-6--6--6--6--6--6-6--4--6--|  
E|--4-4-4-4------------4--4--------4-4-4-4-----------4--4--------4-4-----4--|  

  

  

top 5 | green day
top punk rock
Outras músicas do artista letras do(a) Green Day
4.
She
Top cifras »Top artistas »
Petaxxon Comunicação Online
Cifras.com.br - Melhor e mais completo site de cifras e tablaturas do Brasil
Mais de 1 milhão de acordes de músicas cadastradas desde 2003
As informações contidas no nosso site são colaborações de seus usuários e podem conter erros, sendo assim, não nos responsabilizamos sobre nenhuma destas.
close
menos
mais
close
Cor dos acordes:

Cor da letra:

 

save
close
close
 
redimensionar