Cifras e Tablaturas
Grimes

Grimes

Oblivion

Cifras Cancelar Versão de Impressão
cifras

Grimes - Oblivion

fixar na tela  
Exibindo: vídeo-aula ver clipes redimensionar
  Intro (0:00) 

Guitar 1 
e|---------------------------------------------------------------------------| 
B|---------------------------------------------------------------------------| 
G|-----7--------------------7-----7------------------------------------------| 
D|-------7--------------------7-----7-7------x2------------------------------| 
A|-5-5-----5-5---5------5-5-----5--------------------------------------------| 
E|-------------5-------------------------------------------------------------| 

e|---------------------------------------------------------------------------| 
B|---------------------------------------------------------------------------| 
G|-----4--------------------4-----4------------------------------------------| 
D|-------4--------------------4-----4-4------x2------------------------------| 
A|-2-2-----2-2---2------2-2-----2--------------------------------------------| 
E|-------------2-------------------------------------------------------------| (play entire part twice) 

Bass (Comes in at 0:12, after one repetition of Guitar 1 Riff) 
G|---------------------------------------------------------------------------| 
D|---------------------------------------------------------------------------| 
A|-5----5-5-x4---------------------------------------------------------------| 
E|---------------------------------------------------------------------------| 

G|---------------------------------------------------------------------------| 
D|---------------------------------------------------------------------------| 
A|-2----2-2-x4---------------------------------------------------------------| 
E|---------------------------------------------------------------------------| 

Verse (0:24) (I never walk about after dark...) 

Guitar 1 
e|---------------------------------------------------------------------------| 
B|---------------------------------------------------------------------------| 
G|-----7--------------------7-----7------------------------------------------| 
D|-------7--------------------7-----7-7------x2------------------------------| 
A|-5-5-----5-5---5------5-5-----5--------------------------------------------| 
E|-------------5-------------------------------------------------------------| 

e|---------------------------------------------------------------------------| 
B|---------------------------------------------------------------------------| 
G|-----4--------------------4-----4------------------------------------------| 
D|-------4--------------------4-----4-4------x2------------------------------| 
A|-2-2-----2-2---2------2-2-----2--------------------------------------------| 
E|-------------2-------------------------------------------------------------| (play entire part twice) 

Guitar 2  
D - Bm x2 

Bass 
G|---------------------------------------------------------------------------| 
D|---------------------------------------------------------------------------| 
A|-5----5-5-x4---------------------------------------------------------------| 
E|---------------------------------------------------------------------------| 

G|---------------------------------------------------------------------------| 
D|---------------------------------------------------------------------------| 
A|-2----2-2-x4---------------------------------------------------------------| 
E|---------------------------------------------------------------------------| 


Chorus 1 (0:49) (See you on a dark night...) 

Guitar 1 
e|---------------------------------------------------------------------------| 
B|---------------------------------------------------------------------------| 
G|-----7--------------------7-----7------------------------------------------| 
D|-------7--------------------7-----7-7------x2------------------------------| 
A|-5-5-----5-5---5------5-5-----5--------------------------------------------| 
E|-------------5-------------------------------------------------------------| 

e|---------------------------------------------------------------------------| 
B|---------------------------------------------------------------------------| 
G|-----4--------------------4-----4------------------------------------------| 
D|-------4--------------------4-----4-4------x2------------------------------| 
A|-2-2-----2-2---2------2-2-----2--------------------------------------------| 
E|-------------2-------------------------------------------------------------| 

Guitar 2 
e|---------------------------------------------------------------------------| 
B|---------------------------------------------------------------------------| 
G|-14--------16--11--x4------------------------------------------------------| 
D|-12--------12--12----------------------------------------------------------| 
A|---------------------------------------------------------------------------| 
E|---------------------------------------------------------------------------| 

Bass 
G|---------------------------------------------------------------------------| 
D|---------------------------------------------------------------------------| 
A|-12--------14---9--x4------------------------------------------------------| 
E|---------------------------------------------------------------------------| 

Verse (1:14) 

Chorus 2 (1:38) 

Guitar 1 
e|---------------------------------------------------------------------------| 
B|---------------------------------------------------------------------------| 
G|-----7--------------------7-----7------------------------------------------| 
D|-------7--------------------7-----7-7------x2------------------------------| 
A|-5-5-----5-5---5------5-5-----5--------------------------------------------| 
E|-------------5-------------------------------------------------------------| 

e|---------------------------------------------------------------------------| 
B|---------------------------------------------------------------------------| 
G|-----4--------------------4-----4------------------------------------------| 
D|-------4--------------------4-----4-4------x2------------------------------| 
A|-2-2-----2-2---2------2-2-----2--------------------------------------------| 
E|-------------2-------------------------------------------------------------| (play entire part once) 

Bridge (1:50) 

Guitar 1 
e|---------------------------------------------------------------------------| 
B|---------------------------------------------------------------------------| 
G|-----7--------------------7-----7------------------------------------------| 
D|-------7--------------------7-----7-7------x2------------------------------| 
A|-5-5-----5-5---5------5-5-----5--------------------------------------------| 
E|-------------5-------------------------------------------------------------| 

e|---------------------------------------------------------------------------| 
B|---------------------------------------------------------------------------| 
G|-----4--------------------4-----4------------------------------------------| 
D|-------4--------------------4-----4-4------x2------------------------------| 
A|-2-2-----2-2---2------2-2-----2--------------------------------------------| 
E|-------------2-------------------------------------------------------------| (play entire part once) 

Guitar 2 (Comes in at 2:03, after one repetition of Guitar 1's Riff) 
e|----------9----------------------------------------------------------------| 
B|----10-12-----x4-----------------------------------------------------------| 
G|-11--------10--------------------------------------------------------------| 
D|---------------------------------------------------------------------------| 
A|---------------------------------------------------------------------------| 
E|---------------------------------------------------------------------------| 

Bass 
G|---------------------------------------------------------------------------| 
D|---------------------------------------------------------------------------| 
A|-5----5-5-x4---------------------------------------------------------------| 
E|---------------------------------------------------------------------------| 

G|---------------------------------------------------------------------------| 
D|---------------------------------------------------------------------------| 
A|-2----2-2-x4---------------------------------------------------------------| 
E|---------------------------------------------------------------------------| 

G|---------------------------------------------------------------------------| 
D|---------------------------------------------------------------------------| 
A|-5----5-5-x4---------------------------------------------------------------| 
E|---------------------------------------------------------------------------| 

G|---------------------------------------------------------------------------| 
D|---------------------------------------------------------------------------| 
A|-2----2-2-x4---------------------------------------------------------------| 
E|---------------------------------------------------------------------------| 

G|---------------------------------------------------------------------------| 
D|---------------------------------------------------------------------------| 
A|-5----5-5-x4---------------------------------------------------------------| 
E|---------------------------------------------------------------------------| 

Outro (2:27) 

Bass 
G|---------------------------------------------------------------------------| 
D|-0-0-3-4-0-----x2----------------------------------------------------------| 
A|-------------3-------------------------------------------------------------| 
E|---------------------------------------------------------------------------| 

G|---------------------------------------------------------------------------| 
D|-------0-------x2----------------------------------------------------------| 
A|-2-0-2---2---0-------------------------------------------------------------| 
E|---------------------------------------------------------------------------| (play entire part eight times) 

Guitar 2 Riff 1 (Comes in at 2:39, after one repetition of Bass Riff) 
e|----------9----------------------------------------------------------------| 
B|----10-12-----x6-----------------------------------------------------------| 
G|-11--------10--------------------------------------------------------------| 
D|---------------------------------------------------------------------------| 
A|---------------------------------------------------------------------------| 
E|---------------------------------------------------------------------------| 

Guitar 2 Riff 2 
e|---------------------------------------------------------------------------| 
B|---------------------------------------------------------------------------| 
G|-14--------16--11--x4------------------------------------------------------| 
D|-12--------12--12----------------------------------------------------------| 
A|---------------------------------------------------------------------------| 
E|---------------------------------------------------------------------------| 


Guitar 1 (Comes in at 2:52, after two repetitions of Guitar 2 Riff 1) 
e|---------------------------------------------------------------------------| 
B|---------------------------------------------------------------------------| 
G|-----7--------------------7-----7------------------------------------------| 
D|-------7--------------------7-----7-7------x2------------------------------| 
A|-5-5-----5-5---5------5-5-----5--------------------------------------------| 
E|-------------5-------------------------------------------------------------| 

e|---------------------------------------------------------------------------| 
B|---------------------------------------------------------------------------| 
G|-----4--------------------4-----4------------------------------------------| 
D|-------4--------------------4-----4-4------x2------------------------------| 
A|-2-2-----2-2---2------2-2-----2--------------------------------------------| 
E|-------------2-------------------------------------------------------------| (play entire part thrice)  
  

cifra enviadasem correções
enviado porenviada por:tercmoraes
top 5 | grimes
top pop music
Outras músicas do artista letras do(a) Grimes
Top cifras »Top artistas »
Petaxxon Comunicação Online
Cifras.com.br - Melhor e mais completo site de cifras e tablaturas do Brasil
Mais de 1 milhão de acordes de músicas cadastradas desde 2003
As informações contidas no nosso site são colaborações de seus usuários e podem conter erros, sendo assim, não nos responsabilizamos sobre nenhuma destas.
close
menos
mais
close
Cor dos acordes:

Cor da letra:

 

save
close
close
 
redimensionar