Cifras e Tablaturas
Grizfolk

Grizfolk

In My Arms

Cifras Cancelar Versão de Impressão
cifras

Grizfolk - In My Arms

fixar na tela  
Exibindo: vídeo-aula ver clipes redimensionar

Tom:

  
Intro 

E|--3---3---3---3---3---3---3---3---6---6---6---6---8---8---8---8----| 
B|----4---4---4---4---4---4---4---4---6---6---6---6---8---8---8---8--| 
G|-------------------------------------------------------------------|  (x2) 
D|-------------------------------------------------------------------| 
A|-------------------------------------------------------------------| 
E|-------------------------------------------------------------------| 

Verse 

         Honey did I wake you?            Had that falling dream again 

E|------------------------------------------------------------| 
B|------------------------------------------------------------| 
G|------------------------------3----/8------------------5----| 
D|--5---------------------------3----/8------------------5----| 
A|--5---------------------------1----/6------------------3----| 
E|--3---------------------------------------------------------| 

         Fear we're going nowhere        Can we start where we began? 

E|------------------------------------------------------------| 
B|------------------------------------------------------------| 
G|------------------------------3----/8------------------5----| 
D|--5---------------------------3----/8------------------5----| 
A|--5---------------------------1----/6------------------3----| 
E|--3---------------------------------------------------------| 


Pre-Chorus 


    Couldn't love you more, couldn't love you more 

E|--------------------------------------------------| 
B|--------------------------------------------------| 
G|--------------------------------------------------| 
D|--6-----------------------------------------------| 
A|--6-----------------------------------------------| 
E|--4-----------------------------------------------| 

    Couldn't love you more, couldn't love you more 

E|---------------------------------------------------| 
B|---------------------------------------------------| 
G|--3------------------------------------------------| 
D|--3------------------------------------------------| 
A|--1------------------------------------------------| 
E|---------------------------------------------------| 

Can we start where we began? 

E|--------------------------------------------------| 
B|--------------------------------------------------| 
G|--------------------------------------------------| 
D|--5-----------------------------------------------| 
A|--5-----------------------------------------------| 
E|--3-----------------------------------------------| 

    Couldn't love you more, couldn't love you more 

E|--------------------------------------------------| 
B|--------------------------------------------------| 
G|--------------------------------------------------| 
D|--6-----------------------------------------------| 
A|--6-----------------------------------------------| 
E|--4-----------------------------------------------| 

    Couldn't love you more 

E|--------------------------------------------------| 
B|--------------------------------------------------| 
G|--5-----------------------------------------------| 
D|--5-----------------------------------------------| 
A|--3-----------------------------------------------| 
E|--------------------------------------------------| 

Need to start where we began 

E|--------------------------------------------------| 
B|--------------------------------------------------| 
G|--------------------------------------------------| 
D|--------------------------------------------------| 
A|--------------------------------------------------| 
E|--------------------------------------------------| 


Chorus 

          I feel we're falling away 

E|--------------------------------------------------| 
B|--------------------------------------------------| 
G|-------------------------------------3----/8------| 
D|--5----------------------------------3----/8------| 
A|--5----------------------------------1----/6------| 
E|--3----------------------------------1----/6------| 


    You got me hoping for a miracle 
E|--------------------------------------------------| 
B|--------------------------------------------------| 
G|--------------------------5-----------------------| 
D|--------------------------5------------5----------| 
A|--------------------------3------------5----------| 
E|--------------------------3------------3----------| 

    Give me one more day 
E|--------------------------------------------------| 
B|--------------------------------------------------| 
G|--------------------3----/8-----------------------| 
D|--------------------3----/8-----------------------| 
A|--------------------1----/6-----------------------| 
E|--------------------1----/6-----------------------| 


     Let me hold you in my arms, yeah 
E|--------------------------------------------------| 
B|--------------------------------------------------| 
G|----------------------------5---------------------| 
D|----------------------------5------------5--------| 
A|----------------------------3------------5--------| 
E|----------------------------3------------3--------| 


     Let me hold you in my arms 
E|--------------------------------------------------| 
B|--------------------------------------------------| 
G|--------------------------3----/8-----------------| 
D|--------------------------3----/8-----------------| 
A|--------------------------1----/6-----------------| 
E|--------------------------1----/6-----------------| 

     Let me hold you in my arms 
E|--------------------------------------------------| 
B|--------------------------------------------------| 
G|-------------------------5------------------------| 
D|-------------------------5------------5-----------| 
A|-------------------------3------------5-----------| 
E|-------------------------3------------3-----------| 


     Let me hold you in my arms 
E|--------------------------------------------------| 
B|--------------------------------------------------| 
G|--------------------------3----/8-----------------| 
D|--------------------------3----/8-----------------| 
A|--------------------------1----/6-----------------| 
E|--------------------------1----/6-----------------| 

     Let me hold you in my arms 
E|--------------------------------------------------| 
B|--------------------------------------------------| 
G|-------------------------5------------------------| 
D|-------------------------5------------------------| 
A|-------------------------3------------------------| 
E|-------------------------3------------------------| 

Verse 

         Darlin' are you with me? 
E|--------------------------------------------------| 
B|--------------------------------------------------| 
G|------------------------------3----/8-------------| 
D|------------------------------3----/8-------------| 
A|------------------------------1----/6-------------| 
E|--------------------------------------------------| 

        I hear you crying but there's no tears 

E|---------------------------------------------------| 
B|---------------------------------------------------| 
G|------------------------------------5--------------| 
D|------------------------------------5-----5--------| 
A|------------------------------------3-----5--------| 
E|------------------------------------------3--------| 

         Feel we're riding in the backseat 
E|---------------------------------------------------| 
B|---------------------------------------------------| 
G|--------------------------------------3----/8------| 
D|--------------------------------------3----/8------| 
A|--------------------------------------1----/6------| 
E|---------------------------------------------------| 

        Nobody wants to take the wheel 

E|---------------------------------------| 
B|---------------------------------------| 
G|----------------------------5----------| 
D|----------------------------5----------| 
A|----------------------------3----------| 
E|---------------------------------------| 


    Couldn't love you more, couldn't love you more 

E|--------------------------------------------------| 
B|--------------------------------------------------| 
G|--------------------------------------------------| 
D|--6-----------------------------------------------| 
A|--6-----------------------------------------------| 
E|--4-----------------------------------------------| 

    Couldn't love you more 

E|--------------------------------------------------| 
B|--------------------------------------------------| 
G|--5-----------------------------------------------| 
D|--5-----------------------------------------------| 
A|--3-----------------------------------------------| 
E|--------------------------------------------------| 

Chorus 

          I feel we're falling away 

E|--------------------------------------------------| 
B|--------------------------------------------------| 
G|-------------------------------------3----/8------| 
D|--5----------------------------------3----/8------| 
A|--5----------------------------------1----/6------| 
E|--3----------------------------------1----/6------| 


    You got me hoping for a miracle 
E|--------------------------------------------------| 
B|--------------------------------------------------| 
G|--------------------------5-----------------------| 
D|--------------------------5------------5----------| 
A|--------------------------3------------5----------| 
E|--------------------------3------------3----------| 

    Give me one more day 
E|--------------------------------------------------| 
B|--------------------------------------------------| 
G|--------------------3----/8-----------------------| 
D|--------------------3----/8-----------------------| 
A|--------------------1----/6-----------------------| 
E|--------------------1----/6-----------------------| 


     Let me hold you in my arms, yeah 
E|--------------------------------------------------| 
B|--------------------------------------------------| 
G|----------------------------5---------------------| 
D|----------------------------5------------5--------| 
A|----------------------------3------------5--------| 
E|----------------------------3------------3--------| 


     Let me hold you in my arms 
E|--------------------------------------------------| 
B|--------------------------------------------------| 
G|--------------------------3----/8-----------------| 
D|--------------------------3----/8-----------------| 
A|--------------------------1----/6-----------------| 
E|--------------------------1----/6-----------------| 

     Let me hold you in my arms 
E|--------------------------------------------------| 
B|--------------------------------------------------| 
G|-------------------------5------------------------| 
D|-------------------------5------------5-----------| 
A|-------------------------3------------5-----------| 
E|-------------------------3------------3-----------| 


     Let me hold you in my arms 
E|--------------------------------------------------| 
B|--------------------------------------------------| 
G|--------------------------3----/8-----------------| 
D|--------------------------3----/8-----------------| 
A|--------------------------1----/6-----------------| 
E|--------------------------1----/6-----------------| 

     Let me hold you in my arms 
E|--------------------------------------------------| 
B|--------------------------------------------------| 
G|-------------------------5------------------------| 
D|-------------------------5------------------------| 
A|-------------------------3------------------------| 
E|-------------------------3------------------------| 


Bridge 

     Let me hold you in my arms (x4) 

E|--3---3---3---3---3---3---3---3---6---6---6---6---8---8---8---8----| 
B|----4---4---4---4---4---4---4---4---6---6---6---6---8---8---8---8--| 
G|-------------------------------------------------------------------|  (x2) 
D|-------------------------------------------------------------------| 
A|-------------------------------------------------------------------| 
E|-------------------------------------------------------------------| 

Chorus 

          I feel we're falling away 

E|--------------------------------------------------| 
B|--------------------------------------------------| 
G|-------------------------------------3----/8------| 
D|--5----------------------------------3----/8------| 
A|--5----------------------------------1----/6------| 
E|--3----------------------------------1----/6------| 


    You got me hoping for a miracle 
E|--------------------------------------------------| 
B|--------------------------------------------------| 
G|--------------------------5-----------------------| 
D|--------------------------5------------5----------| 
A|--------------------------3------------5----------| 
E|--------------------------3------------3----------| 

    Give me one more day 
E|--------------------------------------------------| 
B|--------------------------------------------------| 
G|--------------------3----/8-----------------------| 
D|--------------------3----/8-----------------------| 
A|--------------------1----/6-----------------------| 
E|--------------------1----/6-----------------------| 


     Let me hold you in my arms, yeah 
E|--------------------------------------------------| 
B|--------------------------------------------------| 
G|----------------------------5---------------------| 
D|----------------------------5------------5--------| 
A|----------------------------3------------5--------| 
E|----------------------------3------------3--------| 


     Let me hold you in my arms 
E|--------------------------------------------------| 
B|--------------------------------------------------| 
G|--------------------------3----/8-----------------| 
D|--------------------------3----/8-----------------| 
A|--------------------------1----/6-----------------| 
E|--------------------------1----/6-----------------| 

     Let me hold you in my arms 
E|--------------------------------------------------| 
B|--------------------------------------------------| 
G|-------------------------5------------------------| 
D|-------------------------5------------5-----------| 
A|-------------------------3------------5-----------| 
E|-------------------------3------------3-----------| 


     Let me hold you in my arms 
E|--------------------------------------------------| 
B|--------------------------------------------------| 
G|--------------------------3----/8-----------------| 
D|--------------------------3----/8-----------------| 
A|--------------------------1----/6-----------------| 
E|--------------------------1----/6-----------------| 

     Let me hold you in my arms 
E|--------------------------------------------------| 
B|--------------------------------------------------| 
G|-------------------------5------------------------| 
D|-------------------------5------------------------| 
A|-------------------------3------------------------| 
E|-------------------------3------------------------| 


************************************ 

| /   Slide up 

************************************ 
  

top 5 | grizfolk
top rock'n roll
Outras músicas do artista letras do(a) Grizfolk
Top cifras »Top artistas »
Petaxxon Comunicação Online
Cifras.com.br - Melhor e mais completo site de cifras e tablaturas do Brasil
Mais de 1 milhão de acordes de músicas cadastradas desde 2003
As informações contidas no nosso site são colaborações de seus usuários e podem conter erros, sendo assim, não nos responsabilizamos sobre nenhuma destas.
close
menos
mais
close
Cor dos acordes:

Cor da letra:

 

save
close
close
 
redimensionar