Cifras e Tablaturas
Guinga

Guinga

Baião De Lacan

Cifras Cancelar Versão de Impressão

Guinga - Baião De Lacan

Tom: A

  			
PART A 

-------------0-4-2p0---2p0-------------------------------------- 
-----------2---------4-----4-2p0-------------------------------- 
---------3-----------------------2p1---2p1---2p1---------------- 
-3h4-4-4-----------------------------4-----4-----4-4---4---4---- 
---------------------------------------------------------------- 
-----------------------------------------------------2---2---2-- 


-------------4-7-6p4---6p4---0---------------------------------- 
-----------5---------7-----7---4-2p0---2p0---2p0---------------- 
---------6---------------------------3-----3-----3-3---3---3---- 
-7/8-8-8-----------------------------------------------4---4---- 
---------------------------------------------------------------- 
-----------------------------------------------------2---2---2-- 


-------------0-4-2p0---2p0-------------------------------------- 
-----------2---------4-----4-2p0----------------------------0--- 
---------3-----------------------2p1---2p1---2p1------------2--- 
-3h4-4-4-----------------------------4-----4-----4-1p0------1--- 
-------------------------------------------------------4-2------ 
---------------------------------------------------------------- 

---------------------------------------------------------------- 
------------3-----------0--------------------------------------- 
------------4-----------6--------------------------------------- 
------------2-----------5--------------------------------------- 
-1-2p1-0-------------------------------------------------------- 
----------4---2-3p2-1-0---4------------------------------------- 



PONTE 

-----------------|------|--------------------------------------- 
-----------------|------|--------------------------------------- 
---------------4-|------|--------------------------------------- 
-----4-------3---|-(3x)-|-----4--------------------------------- 
---3-------2-----|------|---3----------------------------------- 
-2------2--------|------|-2------2------------------------------ 


PARTE B 


-------------0-------------|------|-------------0--------------- 
-----------2---4-2p0-------|------|-----------2---4-2p0--------- 
---------3-----------3-----|------|---------3-----------3------- 
-3h4-4-4---------------4-4-|-(2x)-|-3h4-4-4----------------4---- 
---------------------------|------|----------------------------- 
-----------------------2-2-|------|------------------------2---- 


-------------------------------|-------------------------------- 
---------2--1--------0---------|-------------------------------- 
-------3------1--------1-----3-|-------------------------------- 
-3h4-4----------2--------2---4-|-(2x)--------------------------- 
------------------4----------4-|-------------------------------- 
---------------------------2---|-------------------------------- 


PRÉ REFRÃO 

----------------|------|-------------0-5-2p0----2--2------------ 
-----------2--5-|------|-----------2------------5--5------------ 
---------3----3-|-(2x)-|---------3-----------5--5--5------------ 
-3h4-4-4------4-|------|-3h4-4-4-------------------------------- 
--------------3-|------|---------------------------------------- 
----------------|------|---------------------------------------- 

----------------|------|-------------0-5-2p0----2-2-2--2-2-2-9-- 
-----------2--5-|------|-----------2------------5-4-3--2-1-0-7-- 
---------3----3-|-(2x)-|---------3-----------5--5-4-3--2-1-0-8-- 
-3h4-4-4------4-|------|-3h4-4-4-----------------------2-1-0-7-- 
--------------3-|------|---------------------------------------- 
----------------|------|---------------------------------------- 


REFRÃO 


-9-7--------------------2--5---2------------2-5---2------------- 
-----10--9-7--4------4--2--4---2-5-2--------2-4---2-5-2--------- 
------------------4--------------4-2-4--3-----------4-2-4--3---- 
-------------------------------------4--3---------------4--3---- 
----------------2----2-------2---2--------------2---2----------- 
----------------------------------------2-2----------------2---- 

------5---2-----------------------------------------------1--1-- 
------4---2-5-2---------------------2--1--------------8-7-2--2-- 
-2-1--------4-2-4-3---------------3----2------------9---8-3--3-- 
-2-1------------4-3-------3h4-4-4------3--9h10-10-10----9-4--4-- 
--------2---2---------------------------------------------4--4-- 
------------------2-2-2-2---------------------------------2--2-- 
    	
fixar
fixar inscrever-se

enviado porenviado por: iagovillareal
cifra enviadaCorrigida por: sem correções
logo top cifrasComente
ico música do artistaMúsicas deste artista
ico curtiuCurtiu?
ico destaqueDestaque
Petaxxon Comunicação Online

Cifras.com.br - Melhor e mais completo site de cifras e tablaturas do Brasil Mais de 1 milhão de acordes de músicas cadastradas desde 2003
As informações contidas no nosso site são colaborações de seus usuários e podem conter erros, sendo assim, não nos responsabilizamos sobre nenhuma destas.

close
menos
mais
close
Cor dos acordes:

Cor da letra:

close
Alinhar acordes a direita Alinhar acordes a esquerda Alinhar acordes em baixo Alinhar acordes no topo
close
  Mostrar todos os acordes Esconder acordes muito fáceis Esconder acordes fáceis Esconder acordes intermediários
redimensionar
glossário