Cifras e Tablaturas
Guns N' Roses

Guns N' Roses

Estranged Tablatura Verificada

Ano: 1991
Album : Use Your Illusion II
Compositor : (Axl Rose)

Cifras Cancelar Versão de Impressão
cifras

Guns N' Roses - Estranged

fixar na tela  
Exibindo: vídeo-aula ver clipes redimensionar

Tom:

  
Intro: 


e|----------------------13b15-13~----------------------13----------| 
B|----11-15b18-15~---11-----------13b15-13b15-13~-13b15---13b15-13-| 
G|-12--------------12----------------------------------------------| 
D|-----------------------------------------------------------------| 
A|-----------------------------------------------------------------| 
E|-----------------------------------------------------------------| (2x) 

e|-------13----------------------| 
B|-13b15----(b15)r13--11----11~--| 
G|-----------------------12------| 
D|-------------------------------| 
A|-------------------------------| 
E|-------------------------------| 


Verse 1: A#5 C5 G5 

e|-------13------------------------------13------------| 
B|-13b15----(b15)r13-11--11~-13p11-13b15----(15b)r13~--| 
G|---------------------12------------------------------| 
D|-----------------------------------------------------| 
A|-----------------------------------------------------| 
E|-----------------------------------------------------| 

e|--------------------------------------------------| 
B|-12b13r12b13r12b13r12-(b13)r12b13r12b13r12b13r12--| 
G|--------------------------------------------------| 
D|--------------------------------------------------| 
A|--------------------------------------------------| 
E|--------------------------------------------------| 

e|---------------------13---------------| 
B|-13p12-11~13p11-13b15--(b15)r13~-13---| 
G|--------------------------------------| 
D|--------------------------------------| 
A|--------------------------------------| 
E|--------------------------------------| 

e|-----------------------------------------------| 
B|-12b13r12b13r12b13r12b13r12b13r12b13-12b13r12~-| 
B|-----------------------------------------------| 
G|-----------------------------------------------| 
D|-----------------------------------------------| 
A|-----------------------------------------------| 
E|-----------------------------------------------| 

e|--------------------------------------------------------------------| 
B|-------13b15r13-----13-13b15--13p12-13p12-----13b15~------13-13b15~-| 
G|-----12-----------12---------------------12------------12-----------| 
D|---12-----------10--------------------------12------10--------------| 
A|-10-----------------------------------------------------------------| 
E|--------------------------------------------------------------------| 

e|---------------------------------------------------------------| 
B|-13p12-13p12-------13b15-13~-13b15r13b15--11~-10-11-10-8~------| 
G|-------------12------------------------------------------------| 
D|----------------12---------------------------------------------| 
A|---------------------------------------------------------------| 
E|---------------------------------------------------------------| 

Riff 1: G5 D5 C5 D#5 G5 D5 C5 D#5 G5 F5 G5 D#5 F5 

e|------------------------------------| 
B|-/8~10-10/11~-11/13~-11-10---6~/8~--| 
G|------------------------------------| 
D|------------------------------------| 
A|------------------------------------| 
E|------------------------------------| 

Verse 2: F5 G5 F5 G5 F5 G5 D#5 F5 


Intro: 

e|-----------------------------13b15-13-----------------------| 
B|-------------11-15b18-15---11---------13b15-13b15r13p11-13~-| 
G|-(b15)r12--12-----------/12---------------------------------| 
D|------------------------------------------------------------| 
A|------------------------------------------------------------| 
E|------------------------------------------------------------| 

e|-------13-------------------------------------| 
B|-13b15----13b15-13~--13b15r13p11-13p11----11~-| 
G|---------------------------------------12~----| 
D|----------------------------------------------| 
A|----------------------------------------------| 
E|----------------------------------------------| 

Verse 1: A#5 C5 G5 

e|-----------------------------------------15------------------17b19~-| 
B|(b15)-(b15)-(b15)r13p11--11~-13p11-13b15---13b15r13~-12b13r12-------| 
G|-----------------------12-------------------------------------------| 
D|--------------------------------------------------------------------| 
A|--------------------------------------------------------------------| 
E|--------------------------------------------------------------------| 

e|----------------------13----------------13b15---13p12-----| 
B|-13p12p11~-13p11-13b15--(b15)r13~-13-12~--------------13~-| 
G|----------------------------------------------------------| 
D|----------------------------------------------------------| 
A|----------------------------------------------------------| 
E|----------------------------------------------------------| 

Pian: C D# (4x) A#9 F C G A#9 

solo: C5 A5 G5 F5 C5 G5 F5 C5 

e|--------------------------------------------------------------------| 
B|---------------------------------8----------------------------------| 
G|-/5----5h7p5---5b7r5-5~----5h7p----7b9-7-5h7p5\4-5p4----------------| 
D|---5h7-------7---------5h7------7--------------------5b7r5-3-5---3~-| 
A|---------------------------------------------------------------5----| 
E|--------------------------------------------------------------------| 

e|--------------------6---6------8-8-8-------8---------| 
B|-------------6~-6/8---8---8/10-------11b13---11b13~--| 
G|---------5h7-----------------------------------------| 
D|-5p3-5/7---------------------------------------------| 
A|-----------------------------------------------------| 
E|-----------------------------------------------------| 

e|-------------------------------------------15----15-13-15-13-12-13-12-| 
B|------13-15-13-13b15-13------13-15-13-15b17---13~---------------------| 
G|-12h14-----------------12h14------------------------------------------| 
D|----------------------------------------------------------------------| 
A|----------------------------------------------------------------------| 
E|----------------------------------------------------------------------| 

e|---12--------------------------------------------12-13-15~---12~--| 
B|15----15-13-15-13-12--------15b17~-------12-13-15-----------------| 
G|---------------------14-12---------12-14------------------12------| 
D|------------------------------------------------------------------| 
A|------------------------------------------------------------------| 
E|------------------------------------------------------------------| 

Solo Part 2: F5 C5 G5 F5 C5 G5 C5 G5 F5 C5 

e|------18-------------18-------------------18-------------18-----18---------| 
B|18b20----(b20)--(b20)--(b20)r18-16--18b20----(b20)--(b20)--(b20)--(b20)r18-| 
G|----------------------------------17---------------------------------------| 
D|---------------------------------------------------------------------------| 
A|---------------------------------------------------------------------------| 
E|---------------------------------------------------------------------------| 

e|------------------------------------------------------------------| 
B|-16--15b16-15-----------------------------------------------------| 
G|---17--------17~-15--------------------------------------15-------| 
D|-------------------17p15\13--15b17--------13-15p13-15b17---15p13--| 
A|---------------------------15--------13h15------------------------| 
E|----------------------------------15------------------------------| 

e|---------------------------------------------------15----18-| 
B|-------------------------------15h16-15---15-16-18~---18----| 
G|-------------15-17-17----15-17----------17------------------| 
D|-15p12-15/17---------17-------------------------------------| 
A|------------------------------------------------------------| 
E|------------------------------------------------------------| 

e|----15h18p15----15----------------------------------------------| 
B|-18----------18----18b20---16--16-------------------------------| 
G|-----------------------------17---17-15-17-17--15---15----------| 
D|--------------------------------------------------17---17-15-13-| 
A|----------------------------------------------------------------| 
E|----------------------------------------------------------------| 

e|--------------------------------| 
B|--------------------------------| 
G|--------------------------------| 
D|-15-13------15b17r15p13-15b17---| 
A|------15p13---------------------| 
E|--------------------------------| 

End: C G F C G F Am G F 

e|-------------------| 
B|-------------------| 
G|-------------------| 
D|-----------------1-| 
A|--3---------2-3--0-| 
E|----5-3--0---------| 

F5 E5 D5 C5 A5 G5 E5 F C 



  

cifra enviadacorrigido por:Acelot
enviado poranônimo
top 5 | guns n' roses
top rock'n roll
Outras músicas do artista letras do(a) Guns N' Roses
Top cifras »Top artistas »
Petaxxon Comunicação Online
Cifras.com.br - Melhor e mais completo site de cifras e tablaturas do Brasil
Mais de 1 milhão de acordes de músicas cadastradas desde 2003
As informações contidas no nosso site são colaborações de seus usuários e podem conter erros, sendo assim, não nos responsabilizamos sobre nenhuma destas.
close
menos
mais
close
Cor dos acordes:

Cor da letra:

 

save
close
close
 
redimensionar