Cifras e Tablaturas
Guster

Guster

One Man Wrecking Machine

Cifras Cancelar Versão de Impressão
cifras

Guster - One Man Wrecking Machine

fixar na tela  
Exibindo: vídeo-aula ver clipes redimensionar
  A5           E5           D5 

--2----0-------------------------------------------------| 
--3----0-------------------------------------------------| 
--4----1-------------------------------------------------| 
--4----2-------------------------------------------------| 
--2----2-------------------------------------------------| 
-------0-------------------------------------------------| 
 Bm    E 

Riff One: 

-------5--------5--------------------------------------| 
-----5----5-------5--------5-----------5---------------| 
--(7)-------7-------7----7----6------7---6-------------| 
---------------------------------(7)--------(7)--------| 
-------------------------------------------------------| 
-------------------------------------------------------| 

---5-------5--7-5-------7-5-7-9-7-5--------------------| 
-----5-------------5-----------------5-----------------| 
--------6------------6-----------------6---------------| 
-------------------------------------------------------| 
-------------------------------------------------------| 
-------------------------------------------------------| 


Riff Two: 

----5-------5-------7-5-7-9-7-5-----------------------| 
--5---5-------5------------------5--------------------| 
---------7------7------------------6------------------| 
------------------------------------------------------| 
------------------------------------------------------| 
------------------------------------------------------| 

   A5       E5         D5 
I built a time machine 
    A5                 E5      D5 
I'm going to see the homecoming queen 
Bm                          E 
Take her to the Christmas dance 
Bm                          E 
Maybe now I'll get in her pants, whatever 


       (Riff One)   A5  E5  D5 


A5             E5        D5 
Back with my high school friends 
A5                 E5          D5 
Meeting where the train tracks end 
Bm                 E 
Passing round a skinny joint 
Bm                  E 
Going up to Lookout Point 

       
       (REF) 

A                           D 
I want to pull it apart and put it back together 
F#m                       D 
I want to relive all my adolescent dreams 
A                          E 
Inspired by true events on movie screens 
       D                    A 
I am a one man wrecking machine 



(Riff Two)     A5  E5  D5 

Back in my parents' house 
Back to shouting out loud 

Bm                 E 
One day you'll be a man 
One day you'll understand 

        (REF) 
A                           D 
I want to pull it apart and put it back together 
F#m                       D 
I want to relive all my adolescent dreams 
A                          E 
Inspired by true events on movie screens 
       D                    A 
I am a one man wrecking machine 


F#m                         E 
Inspired by true events on movie screens 
       D                    A 
I am a one man wrecking machine 

Solo: F#m  E  D  A 

-------------------------------------------------------| 
-5/10---105---5/10---102---2/10---105---5/10---10------| 
-------------------------------------------------------| 
-------------------------------------------------------| 
-------------------------------------------------------| 
-------------------------------------------------------| 
-------------------------------------------------------| 


A5           E5     D5 
Here in the present tense 
Nothing is making sense 

Bm                      E 
Waiting for my moment to come 
Everything is still undone 

A                            D 
I tried to pull it apart and put it back together 
F#m                           D 
No point in living in those adolescent dreams 
A                          E 
Inspired by true events on movie screens 
       D                A 
I am a one man wrecking machine 

F#m                          E 
Inspired by true events on movie screens 
       D                A 
I am a one man wrecking machine 


       RIF Final : F#m  E  D  A  (2X) 
  

cifra enviadasem correções
enviado porenviada por:sabrjoao
top 5 | guster
top rock'n roll
Outras músicas do artista letras do(a) Guster
Top cifras »Top artistas »
Petaxxon Comunicação Online
Cifras.com.br - Melhor e mais completo site de cifras e tablaturas do Brasil
Mais de 1 milhão de acordes de músicas cadastradas desde 2003
As informações contidas no nosso site são colaborações de seus usuários e podem conter erros, sendo assim, não nos responsabilizamos sobre nenhuma destas.
close
menos
mais
close
Cor dos acordes:

Cor da letra:

 

save
close
close
 
redimensionar