Cifras e Tablaturas
Gwar

Gwar

Ill Be Your Monster

Cifras Cancelar Versão de Impressão
cifras

Gwar - Ill Be Your Monster

fixar na tela  
Exibindo: vídeo-aula ver clipes redimensionar

Tom:

  
Intro 
eb|-----------------------------------------------------------------| 
Bb|-----------------------------------------------------------------| 
Gb|--5-------------5-----7br~~--5-7--5------------------------------| 
Db|--5-------5-7---5-----7br~~--5-7--5-------5-7---7-------5--------| 
Ab|--3p0-0-0-5-7-0---0-0-------------3p0-0-0-5-7-0-7-5-6-7---0-3-5--| 
Eb|-----------------------------------------------------------------| 
PM       . .     .   . .                 . .     .   . . . 

  |Lead 
eb|-----------------------------------------------------------------| 
Bb|-----------------------------------------------------------------| 
Gb|--5-2~~~--------------7br~~~~------------------------------------| 
Db|--5-2~~~--------------7br~~~~---------------------------5--------| 
Ab|--3-0~~~------------------------------------------5-6-7---0-3-5--| 
Eb|-----------------------------------------------------------------| 
  |PM                                                . . . 
  | 
  |Rhythm 
eb|-----------------------------------------------------------------| 
Bb|-----------------------------------------------------------------| 
Gb|--5-------------5-----7br~~--5-7--5------------------------------| 
Db|--5-------5-7---5-----7br~~--5-7--5-------5-7---7-------5--------| 
Ab|--3p0-0-0-5-7-0---0-0-------------3p0-0-0-5-7-0-7-5-6-7---0-3-5--| 
Eb|-----------------------------------------------------------------| 
  |PM    . .     .   . .                 . .     .   . . . 

eb|-----------------------------------------------------------------| 
Bb|-----------------------------------------------------------------| 
Gb|--5-------------5-----7br~~--5-7--5------------------------------| 
Db|--5-------5-7---5-----7br~~--5-7--5-------5-7---7-------5--------| 
Ab|--3-0-0-0-5-7-0---0-0-------------3-0-0-0-5-7-0-7-5-6-7---0-3-5--| 
Eb|-----------------------------------------------------------------| x2 
PM     . . .     .   . .               . . .     .   . . . 


Verse 
eb|-----------------------------------------------------------------| 
Bb|-----------------------------------------------------------------| 
Gb|--5-------------5-----7br~~--5-7--5------------------------------| 
Db|--5-------5-7---5-----7br~~--5-7--5-------5-7---7-------5--------| 
Ab|--3-0-0-0-5-7-0---0-0-------------3-0-0-0-5-7-0-7-5-6-7---0-3-5--| 
Eb|-----------------------------------------------------------------| 
PM     . . .     .   . .               . . .     .   . . .   . . . 

eb|---------------------------------------------------------------------| 
Bb|---------------------------------------------------------------------| 
Gb|--5-------------5-----7br~~-----------5------------------------------| 
Db|--5-------5-7---5-----7br~~--5-7p5p0--5-------5-7---7-------5--------| 
Ab|--3-0-0-0-5-7-0---0-0-----------------3-0-0-0-5-7-0-7-5-6-7---0-3-0--| 
Eb|---------------------------------------------------------------------| 
PM     . . .     .   . .                             .   . . . 


Chorus 
eb|--------------------------------| 
Bb|--------------------------------| 
Gb|--7--7--7-7-7-10--10--10-10-10--| 
Db|--7--7--7-7-7-10--10--10-10-10--| 
Ab|--5--5--5-5-5--8---8---8--8--8--| 
Eb|--------------------------------| 

eb|----------------------------| 
Bb|----------------------------| 
Gb|--2~~--7br-5----7br-5-------| 
Db|--2~~--7br-5-7--7br-5-7-7~--| 
Ab|--0~~--------7--------7-7~--| 
Eb|----------------------------| 

eb|--------------------------------| 
Bb|--------------------------------| 
Gb|--7--7--7-7-7-10--10--10-10-10--| 
Db|--7--7--7-7-7-10--10--10-10-10--| 
Ab|--5--5--5-5-5--8---8---8--8--8--| 
Eb|--------------------------------| 


Post Chorus 
  |Lead 
eb|---------------------------------------------------------------------| 
Bb|---------------------------------------------------------------------| 
Gb|--5-2~~~--------------7br~~~----------5-2~~~-------------------------| 
Db|--5-2~~~--------------7br~~~----------5-2~~~----------------5--------| 
Ab|--3-0~~~------------------------------3-0~~~----------5-6-7---0-3-5--| 
Eb|---------------------------------------------------------------------| 
  |PM                                                    . . . 
  |Rhythm 
eb|---------------------------------------------------------------------| 
Bb|---------------------------------------------------------------------| 
Gb|--5-------------5-----7br~~-----------5------------------------------| 
Db|--5-------5-7---5-----7br~~--5-7p5p0--5-------5-7---7-------5--------| 
Ab|--3p0-0-0-5-7-0---0-0-----------------3p0-0-0-5-7-0-7-5-6-7---0-3-5--| 
Eb|---------------------------------------------------------------------| 
  |PM    . .     .   . .                     . .     .    


Verse 
eb|---------------------------------------------------------------------| 
Bb|---------------------------------------------------------------------| 
Gb|--5-------------5-----7br~~-----------5------------------------------| 
Db|--5-------5-7---5-----7br~~--5-7p5p0--5-------5-7---7-------5--------| 
Ab|--3p0-0-0-5-7-0---0-0-----------------3p0-0-0-5-7-0-7-5-6-7---0-3-5--| 
Eb|---------------------------------------------------------------------| x4 
PM       . .     .   . .                     . .     .   . . .   . . . 


Chorus 
eb|--------------------------------| 
Bb|--------------------------------| 
Gb|--7--7--7-7-7-10--10--10-10-10--| 
Db|--7--7--7-7-7-10--10--10-10-10--| 
Ab|--5--5--5-5-5--8---8---8--8--8--| 
Eb|--------------------------------| 

eb|----------------------------| 
Bb|----------------------------| 
Gb|--2~~--7br-5----7br-5-------| 
Db|--2~~--7br-5-7--7br-5-7-7~--| 
Ab|--0~~--------7--------7-7~--| 
Eb|----------------------------| 

eb|--------------------------------| 
Bb|--------------------------------| 
Gb|--7--7--7-7-7-10--10--10-10-10--| 
Db|--7--7--7-7-7-10--10--10-10-10--| 
Ab|--5--5--5-5-5--8---8---8--8--8--| 
Eb|--------------------------------| 

eb|----------------------| 
Bb|----------------------| 
Gb|----------5--5---5~~--| 
Db|--7~~~----5--5---5~~--| 
Ab|--7~~~----3--3---3~~--| 
Eb|--5~~~----------------| 

eb|--------------------------------| 
Bb|--------------------------------| 
Gb|--7--7--7-7-7-10--10--10-10-10--| 
Db|--7--7--7-7-7-10--10--10-10-10--| 
Ab|--5--5--5-5-5--8---8---8--8--8--| 
Eb|--------------------------------| 

eb|----------------------------| 
Bb|----------------------------| 
Gb|--2~~--7br-5----7br-5-------| 
Db|--2~~--7br-5-7--7br-5-7-7~--| 
Ab|--0~~--------7--------7-7~--| 
Eb|----------------------------| 

eb|--------------------------------| 
Bb|--------------------------------| 
Gb|--7--7--7-7-7-10--10--10-10-10--| 
Db|--7--7--7-7-7-10--10--10-10-10--| 
Ab|--5--5--5-5-5--8---8---8--8--8--| 
Eb|--------------------------------| 


Post Chorus 
  |Lead 
eb|---------------------------------------------------------------------| 
Bb|---------------------------------------------------------------------| 
Gb|--5-2~~~--------------7br~~~----------5-2~~~-------------------------| 
Db|--5-2~~~--------------7br~~~----------5-2~~~----------------5--------| 
Ab|--3-0~~~------------------------------3-0~~~----------5-6-7---0-3-5--| 
Eb|---------------------------------------------------------------------| 
  |PM                                                    . . . 
  |Rhythm 
eb|---------------------------------------------------------------------| 
Bb|---------------------------------------------------------------------| 
Gb|--5-------------5-----7br~~-----------5------------------------------| 
Db|--5-------5-7---5-----7br~~--5-7p5p0--5-------5-7---7-------5--------| 
Ab|--3p0-0-0-5-7-0---0-0-----------------3p0-0-0-5-7-0-7-5-6-7---0-3-5--| 
Eb|---------------------------------------------------------------------| 
  |PM    . .     .   . .                     . .     .    


Rhythm Under Solo 
eb|--------------------------------| 
Bb|--------------------------------| 
Gb|--7--7--7-7-7-10--10--10-10-10--| 
Db|--7--7--7-7-7-10--10--10-10-10--| 
Ab|--5--5--5-5-5--8---8---8--8--8--| 
Eb|--------------------------------| 

eb|----------------------------| 
Bb|----------------------------| 
Gb|--2~~--7br-5----7br-5-------| 
Db|--2~~--7br-5-7--7br-5-7-7~--| 
Ab|--0~~--------7--------7-7~--| 
Eb|----------------------------| 

eb|--------------------------------| 
Bb|--------------------------------| 
Gb|--7--7--7-7-7-10--10--10-10-10--| 
Db|--7--7--7-7-7-10--10--10-10-10--| 
Ab|--5--5--5-5-5--8---8---8--8--8--| 
Eb|--------------------------------| 

eb|----------------------| 
Bb|----------------------| 
Gb|----------5--5---5~~--| 
Db|--7~~~----5--5---5~~--| 
Ab|--7~~~----3--3---3~~--| 
Eb|--5~~~----------------| 

eb|--------------------------------| 
Bb|--------------------------------| 
Gb|--7--7--7-7-7-10--10--10-10-10--| 
Db|--7--7--7-7-7-10--10--10-10-10--| 
Ab|--5--5--5-5-5--8---8---8--8--8--| 
Eb|--------------------------------| 

eb|-------------------------------| 
Bb|-------------------------------| 
Gb|------5--7---5-------5--7---5--| 
Db|--7---5--7---5---7---5--7---5--| 
Ab|--7---3--5---3---7---3--5---3--| 
Eb|--5--------------5-------------| 

eb|--------------------------------| 
Bb|--------------------------------| 
Gb|--7--7--7-7-7-10--10--10-10-10--| 
Db|--7--7--7-7-7-10--10--10-10-10--| 
Ab|--5--5--5-5-5--8---8---8--8--8--| 
Eb|--------------------------------| 

eb|---------------------------| 
Bb|---------------------------| 
Gb|--5--5--5-5-5-8--8--8-8-8--| 
Db|--5--5--5-5-5-8--8--8-8-8--| 
Ab|--3--3--3-3-3-6--6--6-6-6--| 
Eb|---------------------------| 

eb|-------------------------------| 
Bb|-------------------------------| 
Gb|-------------------------------| 
Db|--------------------------8----| 
Ab|--8-8-8-8-8-8-8-8-8-8-8-8-8----| 
Eb|--6-6-6-6-6-6-6-6-6-6-6-6-6----| 
PM   . . . . . . . . . . . .  


Break 
eb|----------------------------------| 
Bb|----------------------------------| 
Gb|----------------------------------| 
Db|----------------------------------| 
Ab|------8-----7-----6-----4~---*4~--| 
Eb|--6-6---6-6---6-6---6-6----6------| 
PM   . .   . .   . .   . .    . 

eb|-----------------------------------| 
Bb|-----------------------------------| 
Gb|-----------------------------------| 
Db|-----------------------------------| 
Ab|------8-----7-----6-----4-----4----| 
Eb|--6-6---6-6---6-6---6-6---4-6---4--| 
PM   . .   . .   . .   . .   . .    

eb|----------------------------------| 
Bb|----------------------------------| 
Gb|----------------------------------| 
Db|----------------------------------| 
Ab|------8-----7-----6-----4~---*4~--| 
Eb|--6-6---6-6---6-6---6-6----6------| 
PM   . .   . .   . .   . .    . 

eb|-----------------------------------| 
Bb|-----------------------------------| 
Gb|-----------------------------------| 
Db|-----------------------------------| 
Ab|------8-----7-----6-----4-----4----| 
Eb|--6-6---6-6---6-6---6-6---4-6---4--| 
PM   . .   . .   . .   . .   . .   

  |Lead 
eb|-----------------------------------| 
Bb|-----------------------------------| 
Gb|-----------------------------------| 
Db|------10-----9-----8-----6~---*6~--| 
Ab|--8-8----8-8---8-8---8-8----8------| 
Eb|-----------------------------------| 
  |PM. .    . .   . .   . .    . 
  |Rhythm 
eb|----------------------------------| 
Bb|----------------------------------| 
Gb|----------------------------------| 
Db|----------------------------------| 
Ab|------8-----7-----6-----4~---*4~--| 
Eb|--6-6---6-6---6-6---6-6----6------| 
  |PM. .   . .   . .   . .    . 

|Lead 
eb|------------------------------------| 
Bb|------------------------------------| 
Gb|------------------------------------| 
Db|------10-----9-----8-----6-----6----| 
Ab|--8-8----8-8---8-8---8-8---6-8---6--| 
Eb|------------------------------------| 
  |PM. .    . .   . .   . .   . . 
  |Rhythm 
eb|-----------------------------------| 
Bb|-----------------------------------| 
Gb|-----------------------------------| 
Db|-----------------------------------| 
Ab|------8-----7-----6-----4-----4----| 
Eb|--6-6---6-6---6-6---6-6---4-6---4--| 
  |PM. .   . .   . .   . .   . . 

  |Lead 
eb|-----------------------------------| 
Bb|-----------------------------------| 
Gb|-----------------------------------| 
Db|------10-----9-----8-----6~---*6~--| 
Ab|--8-8----8-8---8-8---8-8----8------| 
Eb|-----------------------------------| 
  |PM. .    . .   . .   . .    . 
  |Rhythm 
eb|----------------------------------| 
Bb|----------------------------------| 
Gb|----------------------------------| 
Db|----------------------------------| 
Ab|------8-----7-----6-----4~---*4~--| 
Eb|--6-6---6-6---6-6---6-6----6------| 
  |PM. .   . .   . .   . .    . 

|Lead 
eb|------------------------------------| 
Bb|------------------------------------| 
Gb|------------------------------------| 
Db|------10-----9-----8-----6-----6----| 
Ab|--8-8----8-8---8-8---8-8---6-8---6--| 
Eb|------------------------------------| 
  |PM. .    . .   . .   . .   . . 
  |Rhythm 
eb|-----------------------------------| 
Bb|-----------------------------------| 
Gb|-----------------------------------| 
Db|-----------------------------------| 
Ab|------8-----7-----6-----4-----4----| 
Eb|--6-6---6-6---6-6---6-6---4-6---4--| 
  |PM. .   . .   . .   . .   . . 

eb|------------------| 
Bb|------------------| 
Gb|------------------| 
Db|--8~~-----8~~-----| 
Ab|--8~~-----8~~-----| 
Eb|--6~~-----6~~-----| 


Final Chorus 
eb|--------------------------------| 
Bb|--------------------------------| 
Gb|--8--8--8-8-8-11--11--11-11-11--| 
Db|--8--8--8-8-8-11--11--11-11-11--| 
Ab|--6--6--6-6-6--9---9---9--9--9--| 
Eb|--------------------------------| 

eb|-----------------------------| 
Bb|-----------------------------| 
Gb|-------8br-6----8br-6--------| 
Db|--8~~--8br-6-8--8br-6-8-8~~--| 
Ab|--8~~--------8--------8-8~~--| 
Eb|--6~~------------------------| 

eb|--------------------------------| 
Bb|--------------------------------| 
Gb|--8--8--8-8-8-11--11--11-11-11--| 
Db|--8--8--8-8-8-11--11--11-11-11--| 
Ab|--6--6--6-6-6--9---9---9--9--9--| 
Eb|--------------------------------| 

eb|----------------------| 
Bb|----------------------| 
Gb|----------6--6---6~~--| 
Db|--8~~~----6--6---6~~--| 
Ab|--8~~~----4--4---4~~--| 
Eb|--6~~~----------------| 

eb|--------------------------------| 
Bb|--------------------------------| 
Gb|--8--8--8-8-8-11--11--11-11-11--| 
Db|--8--8--8-8-8-11--11--11-11-11--| 
Ab|--6--6--6-6-6--9---9---9--9--9--| 
Eb|--------------------------------| 

eb|-----------------------------| 
Bb|-----------------------------| 
Gb|-------8br-6----8br-6--------| 
Db|--8~~--8br-6-8--8br-6-8-8~~--| 
Ab|--8~~--------8--------8-8~~--| 
Eb|--6~~------------------------| 

eb|--------------------------------| 
Bb|--------------------------------| 
Gb|--8--8--8-8-8-11--11--11-11-11--| 
Db|--8--8--8-8-8-11--11--11-11-11--| 
Ab|--6--6--6-6-6--9---9---9--9--9--| 
Eb|--------------------------------| 


Outro 
eb|-----------------------------------------------| 
Bb|-----------------------------------------------| 
Gb|-------8-10---8-------6--8---6-------5--6---5--| 
Db|--10---8-10---8---8---6--8---6---6---5--6---5--| 
Ab|--10---6--8---6---8---4--6---4---6---3--4---3--| 
Eb|---8--------------6--------------4-------------| 

eb|---------------------| 
Bb|---------------------| 
Gb|---------------------| 
Db|----------------10\--| 
Ab|--3-4-5-6-7-8-9-10\--| 
Eb|--1-2-3-4-5-6-7--8\--| 
PM   . . . . . . . 


*********************************** 

| p   Pull-off 
| \   Slide-up 
| pb  Pre-bend 
| r   Release 
| ~   Vibrato 
| PM  Palm muting 
| *   Pinch harmonic 
| \   Slide-up 

*********************************** 
  

top 5 | gwar
top rock'n roll
Outras músicas do artista letras do(a) Gwar
Top cifras »Top artistas »
Petaxxon Comunicação Online
Cifras.com.br - Melhor e mais completo site de cifras e tablaturas do Brasil
Mais de 1 milhão de acordes de músicas cadastradas desde 2003
As informações contidas no nosso site são colaborações de seus usuários e podem conter erros, sendo assim, não nos responsabilizamos sobre nenhuma destas.
close
menos
mais
close
Cor dos acordes:

Cor da letra:

 

save
close
close
 
redimensionar