Cifras e Tablaturas
Gwar

Gwar

Phantom Limb

Cifras Cancelar Versão de Impressão

Gwar - Phantom Limb

Tom: E

  			
Intro 
  |Rhythm 
eb|---------------------------------------| 
Bb|---------------------------------------| 
Gb|-----9---9-7---7-7-5-5~~---------------| 
Db|-----9---9-7---7-7-5-5~~---------------| 
Ab|-----7---7-5---5-5-3-3~~---------------| 
Eb|--0----0-----0-------------------------| 
  |PM     .     . 
  | 
  |Lead 
eb|---------------------------------------| 
Bb|---------------------------------------| 
Gb|---------------------------------------| 
Db|---------------------------------------| 
Ab|--------------------------5-7p5p0-7~~--| 
Eb|-----------------------/7--------------| 

  |Rhythm 
eb|--------------------------| 
Bb|--------------------------| 
Gb|-----9---9-7---7-7-5-5~~--| 
Db|-----9---9-7---7-7-5-5~~--| 
Ab|-----7---7-5---5-5-3-3~~--| 
Eb|--0----0-----0------------| 
  |PM     .     . 
  | 
  |Overdub 
eb|--------------------------| 
Bb|--------------------------| 
Gb|--------------------------| 
Db|--2~~---------------------| 
Ab|--2~~---------------------| 
Eb|--0~~---------------------| 

  |Rhythm 
eb|----------------------------------------------| 
Bb|----------------------------------------------| 
Gb|-----9---9-9--5~~~-------------7--4~~---------| 
Db|-----9---9-9--5~~~----5--5-5-5-7--4~~---------| 
Ab|-----7---7-7--3~~~----5--5-5-5-5--2~~---------| 
Eb|--0----0--------------3--3-3-3---------3~-2~--| 
  |PM     .                 . . . 
  | 
  |Overdub 
eb|----------------------------------------------| 
Bb|----------------------------------------------| 
Gb|--------------5~~~-------------7--4~~---------| 
Db|--2~~~--------5~~~----5--5-5-5-7--4~~---------| 
Ab|--2~~~--------3~~~----5--5-5-5-5--2~~---------| 
Eb|--0~~~----------------3--3-3-3---------3~-2~--| 
  |PM                       . . . 
  | 
  |Lead 
eb|----------------------------------------------| 
Bb|----------------------------------------------| 
Gb|-------------------------------7--4~~---------| 
Db|---------------------/5~-5-5-5---------5~-4~--| 
Ab|----------------------------------------------| 
Eb|----------------------------------------------| 
  |PM                       . . . 

eb|-----------------------------------------------------| 
Bb|-----------------------------------------------------| 
Gb|-----9---9-7---7-7-5-5~~------9---9-7---2~~~----4~~--| 
Db|-----9---9-7---7-7-5-5~~------9---9-7---2~~~----4~~--| 
Ab|-----7---7-5---5-5-3-3~~------7---7-5---0~~~----2~~--| 
Eb|--0----0-----0-------------0----0-----0-------0------| 
PM        .     .                  .     .       . 

eb|----------------------------------------------------| 
Bb|----------------------------------------------------| 
Gb|-----9---9-7---7-7-5-5~~-------------7--4~~---------| 
Db|-----9---9-7---7-7-5-5~~----5--5-5-5-7--4~~---------| 
Ab|-----7---7-5---5-5-3-3~~----5--5-5-5-5--2~~---------| 
Eb|--0----0-----0--------------3--3-3-3---------3~-2~--| 
PM        .     .                 . . .   

eb|------------| 
Bb|------------| 
Gb|------------| 
Db|--2~~~~-----| 
Ab|--2~~~~-----| 
Eb|--0~~~~-----| 

Verse 
(Strum from high E to low E) 
     V 
eb|--0~~~-----------------------------------------------| 
Bb|--0~~~-----------------------------------------------| 
Gb|-----------------------------------------------------| 
Db|--2~~~-------2~~~-------2~~~-------------------------| 
Ab|--2~~~-------3~~~-------2~~~-----3p2-0~--2~--3~--2~--| 
Eb|--0~~~------------------0~~~-------------------------| 

     V                     
eb|--0~~~------------------------------------------------| 
Bb|--0~~~------------------------------------------------| 
Gb|-----------------------------------7~~~---2~~~--------| 
Db|--2~~~-------2~~~-------2~~~-------7~~~---2~~~--------| 
Ab|--2~~~-------3~~~-------2~~~-------5~~~---0~~~--------| 
Eb|--0~~~------------------0~~~---------------------3-2--| 

     V                     
eb|--0~~~-----------------------------------------------| 
Bb|--0~~~-----------------------------------------------| 
Gb|-----------------------------------------------------| 
Db|--2~~~-------2~~~-------2~~~-------------------------| 
Ab|--2~~~-------3~~~-------2~~~-----3p2-0~--2~--3~--2~--| 
Eb|--0~~~------------------0~~~-------------------------| 

     V 
eb|--0~~~-------------------------------------------------| 
Bb|--0~~~-------------------------------------------------| 
Gb|------------------------2~~~~----5~~--5-5-5-5/7-7-7-7--| 
Db|--2~~~-------2~~~-------2~~~~----5~~--5-5-5-5/7-7-7-7--| 
Ab|--2~~~-------3~~~-------0~~~~----3~~--3-3-3-3/5-5-5-5--| 
Eb|--0~~~-------------------------------------------------| 

Chorus 
  |Rhythm 
eb|-----------------------------------------| 
Bb|-----------------------------------------| 
Gb|-----9---9-7---7-7-5-5~~-----------------| 
Db|-----9---9-7---7-7-5-5~~-----------------| 
Ab|-----7---7-5---5-5-3-3~~-----------------| 
Eb|--0----0-----0---------------------------| 
  |PM     .     . 
  | 
  |Lead 
eb|-----------------------------------------| 
Bb|-----------------------------------------| 
Gb|-----9---9-7---7-7-5-5~~-----------------| 
Db|-----9---9-7---7-7-5-5~~-----------------| 
Ab|-----7---7-5---5-5-3-3~~----5-7p5p0-7~~--| 
Eb|--0----0-----0-----------/7--------------| 
  |PM     .     . 

eb|----------------------------| 
Bb|----------------------------| 
Gb|-----9---9-7---2~~~----4~~--| 
Db|-----9---9-7---2~~~----4~~--| 
Ab|-----7---7-5---0~~~----2~~--| 
Eb|--0----0-----0-------0------| 
PM        .     .  

  |Rhythm 
eb|--------------------------------------------------| 
Bb|--------------------------------------------------| 
Gb|-----9---9-7---7-7-5-5~~-----------7--4~~---------| 
Db|-----9---9-7---7-7-5-5~~--5--5-5-5-7--4~~---------| 
Ab|-----7---7-5---5-5-3-3~~--5--5-5-5-5--2~~---------| 
Eb|--0----0-----0------------3--3-3-3---------3~-2~--| 
  |PM     .     .               . . . 
  | 
  |Lead 
eb|--------------------------------------------------| 
Bb|--------------------------------------------------| 
Gb|--/16~~\14~~\12~~\11~~--/16-16-16-14--/16~--------| 
Db|--------------------------------------------------| 
Ab|--/14~~\12~~\10~~\\9~~--/14-14-14-12--/14~--------| 
Eb|-------------------------------------------3~-2~--| 

  |Rhythm 
eb|-----------------------------------------| 
Bb|-----------------------------------------| 
Gb|-----9---9-7---7-7-5-5~~-----------------| 
Db|-----9---9-7---7-7-5-5~~-----------------| 
Ab|-----7---7-5---5-5-3-3~~-----------------| 
Eb|--0----0-----0---------------------------| 
  |PM     .     . 
  | 
  |Lead 
eb|-----------------------------------------| 
Bb|-----------------------------------------| 
Gb|-----9---9-7---7-7-5-5~~-----------------| 
Db|-----9---9-7---7-7-5-5~~-----------------| 
Ab|-----7---7-5---5-5-3-3~~----5-7p5p0-7~~--| 
Eb|--0----0-----0-----------/7--------------| 
  |PM     .     . 

eb|----------------------------| 
Bb|----------------------------| 
Gb|-----9---9-7---2~~~----4~~--| 
Db|-----9---9-7---2~~~----4~~--| 
Ab|-----7---7-5---0~~~----2~~--| 
Eb|--0----0-----0-------0------| 
PM        .     .  

  |Rhythm 
eb|--------------------------------------------------| 
Bb|--------------------------------------------------| 
Gb|-----9---9-7---7-7-5-5~~-----------7--4~~---------| 
Db|-----9---9-7---7-7-5-5~~--5--5-5-5-7--4~~---------| 
Ab|-----7---7-5---5-5-3-3~~--5--5-5-5-5--2~~---------| 
Eb|--0----0-----0------------3--3-3-3---------3~-2~--| 
  |PM     .     .               . . . 
  | 
  |Lead 
eb|--------------------------------------------------| 
Bb|--------------------------------------------------| 
Gb|--/16~~\14~~\12~~\11~~---/9-9-9-9-7---9~~---------| 
Db|------------------------------------9-------------| 
Ab|--/14~~\12~~\10~~\\9~~----------------------------| 
Eb|-------------------------------------------3~-2~--| 

eb|------------| 
Bb|------------| 
Gb|------------| 
Db|--2~~~~-----| 
Ab|--2~~~~-----| 
Eb|--0~~~~-----| 

Verse 
(Strum from high E to low E) 
     V 
eb|--0~~~-----------------------------------------------| 
Bb|--0~~~-----------------------------------------------| 
Gb|-----------------------------------------------------| 
Db|--2~~~-------2~~~-------2~~~-------------------------| 
Ab|--2~~~-------3~~~-------2~~~-----3p2-0~--2~--3~--2~--| 
Eb|--0~~~------------------0~~~-------------------------| 

     V                     
eb|--0~~~------------------------------------------------| 
Bb|--0~~~------------------------------------------------| 
Gb|-----------------------------------7~~~---2~~~--------| 
Db|--2~~~-------2~~~-------2~~~-------7~~~---2~~~--------| 
Ab|--2~~~-------3~~~-------2~~~-------5~~~---0~~~--------| 
Eb|--0~~~------------------0~~~---------------------3-2--| 

     V                     V 
eb|--0~~~------------------0~~~-------------------------| 
Bb|--0~~~------------------0~~~-------------------------| 
Gb|-----------------------------------------------------| 
Db|--2~~~-------2~~~-------2~~~-------------------------| 
Ab|--2~~~-------3~~~-------2~~~-----3p2-0~--2~--3~--2~--| 
Eb|--0~~~------------------0~~~-------------------------| 

     V 
eb|--0~~~-------------------------------------------------| 
Bb|--0~~~-------------------------------------------------| 
Gb|------------------------2~~~~----5~~--5-5-5-5/7-7-7-7--| 
Db|--2~~~-------2~~~-------2~~~~----5~~--5-5-5-5/7-7-7-7--| 
Ab|--2~~~-------3~~~-------0~~~~----3~~--3-3-3-3/5-5-5-5--| 
Eb|--0~~~-------------------------------------------------| 

Chorus 
  |Rhythm 
eb|-----------------------------------------| 
Bb|-----------------------------------------| 
Gb|-----9---9-7---7-7-5-5~~-----------------| 
Db|-----9---9-7---7-7-5-5~~-----------------| 
Ab|-----7---7-5---5-5-3-3~~-----------------| 
Eb|--0----0-----0---------------------------| 
  |PM     .     . 
  | 
  |Lead 
eb|-----------------------------------------| 
Bb|-----------------------------------------| 
Gb|-----9---9-7---7-7-5-5~~-----------------| 
Db|-----9---9-7---7-7-5-5~~-----------------| 
Ab|-----7---7-5---5-5-3-3~~----5-7p5p0-7~~--| 
Eb|--0----0-----0-----------/7--------------| 
  |PM     .     . 

eb|----------------------------| 
Bb|----------------------------| 
Gb|-----9---9-7---2~~~----4~~--| 
Db|-----9---9-7---2~~~----4~~--| 
Ab|-----7---7-5---0~~~----2~~--| 
Eb|--0----0-----0-------0------| 
PM        .     .  

  |Rhythm 
eb|--------------------------------------------------| 
Bb|--------------------------------------------------| 
Gb|-----9---9-7---7-7-5-5~~-----------7--4~~---------| 
Db|-----9---9-7---7-7-5-5~~--5--5-5-5-7--4~~---------| 
Ab|-----7---7-5---5-5-3-3~~--5--5-5-5-5--2~~---------| 
Eb|--0----0-----0------------3--3-3-3---------3~-2~--| 
  |PM     .     .               . . . 
  | 
  |Lead 
eb|--------------------------------------------------| 
Bb|--------------------------------------------------| 
Gb|--/16~~\14~~\12~~\11~~--/16-16-16-14--/16~--------| 
Db|--------------------------------------------------| 
Ab|--/14~~\12~~\10~~\\9~~--/14-14-14-12--/14~--------| 
Eb|-------------------------------------------3~-2~--| 

  |Rhythm 
eb|-----------------------------------------| 
Bb|-----------------------------------------| 
Gb|-----9---9-7---7-7-5-5~~-----------------| 
Db|-----9---9-7---7-7-5-5~~-----------------| 
Ab|-----7---7-5---5-5-3-3~~-----------------| 
Eb|--0----0-----0---------------------------| 
  |PM     .     . 
  | 
  |Lead 
eb|-----------------------------------------| 
Bb|-----------------------------------------| 
Gb|-----9---9-7---7-7-5-5~~-----------------| 
Db|-----9---9-7---7-7-5-5~~-----------------| 
Ab|-----7---7-5---5-5-3-3~~----5-7p5p0-7~~--| 
Eb|--0----0-----0-----------/7--------------| 
  |PM     .     . 

eb|----------------------------| 
Bb|----------------------------| 
Gb|-----9---9-7---2~~~----4~~--| 
Db|-----9---9-7---2~~~----4~~--| 
Ab|-----7---7-5---0~~~----2~~--| 
Eb|--0----0-----0-------0------| 
PM        .     .  

  |Rhythm 
eb|--------------------------------------------------| 
Bb|--------------------------------------------------| 
Gb|-----9---9-7---7-7-5-5~~-----------7--4~~---------| 
Db|-----9---9-7---7-7-5-5~~--5--5-5-5-7--4~~---------| 
Ab|-----7---7-5---5-5-3-3~~--5--5-5-5-5--2~~--0~-2~--| 
Eb|--0----0-----0------------3--3-3-3----------------| 
  |PM     .     .               . . . 
  | 
  |Lead 
eb|--------------------------------------------------| 
Bb|--------------------------------------------------| 
Gb|--/16~~\14~~\12~~\11~~---/9-9-9-9-7---9~~---------| 
Db|------------------------------------9-------------| 
Ab|--/14~~\12~~\10~~\\9~~---------------------0~-2~--| 
Eb|--------------------------------------------------| 

Bridge 
eb|-------------------------------------------------------------| 
Bb|-------------------------------------------------------------| 
Gb|--5~-5-5---5---5~-5-5---5/7-7/9-9~-9-9---9---9~-9---9\9-7\5--| 
Db|--5~-5-5---5---5~-5-5---5/7-7/9-9~-9-9---9---9~-9---9\7-7\5--| 
Ab|--3~-3-3---3---3~-3-3---3/5-5/7-7~-7-7---7---7~-7---7\5-5\3--| 
Eb|---------0---0--------0----------------0---0------0----------| 
PM          .   .        .                .   .      . 

  |Rhythm 
eb|---------------------------------------------------------------| 
Bb|---------------------------------------------------------------| 
Gb|--5~-5-5---5---5~-5-5---5/7-7/9-9~-9-9---9---9~-9-9--12\7-7\5--| 
Db|--5~-5-5---5---5~-5-5---5/7-7/9-9~-9-9---9---9~-9-9--12\7-7\5--| 
Ab|--3~-3-3---3---3~-3-3---3/5-5/7-7~-7-7---7---7~-7-7--10\5-5\3--| 
Eb|---------0---0--------0----------------0---0-------------------| 
  |PM       .   .        .                .   .       
  | 
  |Lead 
eb|------------------------------------------------------------| 
Bb|------------------------------------------------------------| 
Gb|--5~-5-5---5---5~-5-5---5/7-7/9-9~-9-9---9---9~-9-9--9--11--| 
Db|--5~-5-5---5---5~-5-5---5/7-7/9-9~-9-9---9---9~-9-9---------| 
Ab|--3~-3-3---3---3~-3-3---3/5-5/7-7~-7-7---7---7~-7-7--7---9--| 
Eb|---------0---0--------0----------------0---0----------------| 
  |PM       .   .        .                .   .       

  |Rhythm 
eb|-------------------------------------------------------------| 
Bb|-------------------------------------------------------------| 
Gb|--5~-5-5---5---5~-5-5---5/7-7/9-9~-9-9---9---9~-9---9\9-7\5--| 
Db|--5~-5-5---5---5~-5-5---5/7-7/9-9~-9-9---9---9~-9---9\7-7\5--| 
Ab|--3~-3-3---3---3~-3-3---3/5-5/7-7~-7-7---7---7~-7---7\5-5\3--| 
Eb|---------0---0--------0----------------0---0------0----------| 
  |PM       .   .        .                .   .      . 
  | 
  |Lead 
eb|-------------------------------------------------------------------------------------------| 
Bb|-------------------------------------------------------------------------------------------| 
Gb|--12-12\11-11/12-12\11-11/14-14\12-12\11-11/12-12/16-16\14-14\12-12/14-14\12-12~~--12--14--| 
Db|-------------------------------------------------------------------------------------------| 
Ab|--10-10\\9--9/10-10\\9--9/12-12\10-10\\9--9/10-10/14-14\12-12\10-10/12-12\10-10~~--10--12--| 
Eb|-------------------------------------------------------------------------------------------| 

  |Rhythm 
eb|---------------------------------------------------------------| 
Bb|---------------------------------------------------------------| 
Gb|--5~~-5~~-5~~-5~~-5~~-5~~-5~~-5/7-7-7-7-7-7-7-7-7-7-7-7-7-7-7--| 
Db|--5~~-5~~-5~~-5~~-5~~-5~~-5~~-5/7-7-7-7-7-7-7-7-7-7-7-7-7-7-7--| 
Ab|--3~~-3~~-3~~-3~~-3~~-3~~-3~~-3/5-5-5-5-5-5-5-5-5-5-5-5-5-5-5--| 
Eb|---------------------------------------------------------------| 
  | 
  |Lead 
eb|--------------------------------------------------------------------------| 
Bb|--------------------------------------------------------------------------| 
Gb|--17\16-16\14-14\12-12/14-14\12-12\11-11\9-19\17-17\16-16\14-14/16-16~~~--| 
Db|--------------------------------------------------------------------------| 
Ab|--15\14-14\12-12\10-10/12-12\10-10\\9--9\7-17\15-15\14-14\12-12/14-14~~~--| 
Eb|--------------------------------------------------------------------------| 

Break 
  |Lead 
eb|--------10------------------| 
Bb|--12-12----10---------------| 
Gb|--------------12-11-12-9~~--| 
Db|----------------------------| 
Ab|----------------------------| 
Eb|----------------------------| 
  | 
  |Rhythm 
eb|----------------------------| 
Bb|----------------------------| 
Gb|-----9---9-7---7-7-5-5~~----| 
Db|-----9---9-7---7-7-5-5~~----| 
Ab|-----7---7-5---5-5-3-3~~----| 
Eb|--0----0-----0--------------| 
  |PM     .     . 

  |Lead 
eb|----------------------| 
Bb|----------------------| 
Gb|-----9-12-11----------| 
Db|--12---------12-10~~--| 
Ab|----------------------| 
Eb|----------------------| 
  | 
  |Rhythm 
eb|----------------------| 
Bb|----------------------| 
Gb|-----9---9-9--5~~~----| 
Db|-----9---9-9--5~~~----| 
Ab|-----7---7-7--3~~~----| 
Eb|--0----0--------------| 
  |PM     .     

  |Lead                         (Use wah here) 
eb|-----------------------------------------------------------------| 
Bb|--15b~~~rh17p15-13~~~-12~~~--15b~-15b-15b-15b-15b-15brp12-15b~~--| 
Gb|-----------------------------------------------------------------| 
Db|-----------------------------------------------------------------| 
Ab|-----------------------------------------------------------------| 
Eb|-----------------------------------------------------------------| 
  | 
  |Rhythm 
eb|----------------------------------------------------------| 
Bb|----------------------------------------------------------| 
Gb|--9~~~~/11~~~~/12~~~~/14~~~~--16-16-16-16-14--16~---------| 
Db|----------------------------------------------------------| 
Ab|--7~~~~//9~~~~-10~~~~/12~~~~--14-14-14-14-12--14~--3~-2~--| 
Eb|----------------------------------------------------------| 
  

Rhythm Under Solo 
eb|--------------------| 
Bb|--------------------| 
Gb|--2~-2-2-2-4--5~~~--| 
Db|--2~-2-2-2-4--5~~~--| 
Ab|--0~-0-0-0-2--3~~~--| 
Eb|--------------------| x3 
PM      . . . 

eb|--------------------------| 
Bb|--------------------------| 
Gb|-----------7--4~~---------| 
Db|--5--5-5-5-7--4~~---------| 
Ab|--5--5-5-5-5--2~~---------| 
Eb|--3--3-3-3---------3~-2~--| 
PM      . . .   

Chorus 
eb|-----------------------------------------------------| 
Bb|-----------------------------------------------------| 
Gb|-----9---9-7---7-7-5-5~~------9---9-7---2~~~----4~~--| 
Db|-----9---9-7---7-7-5-5~~------9---9-7---2~~~----4~~--| 
Ab|-----7---7-5---5-5-3-3~~------7---7-5---0~~~----2~~--| 
Eb|--0----0-----0-------------0----0-----0-------0------| 
PM        .     .                  .     .     

  |Rhythm 
eb|--------------------------------------------------| 
Bb|--------------------------------------------------| 
Gb|-----9---9-7---7-7-5-5~~-----------7--4~~---------| 
Db|-----9---9-7---7-7-5-5~~--5--5-5-5-7--4~~---------| 
Ab|-----7---7-5---5-5-3-3~~--5--5-5-5-5--2~~---------| 
Eb|--0----0-----0------------3--3-3-3---------3~-2~--| 
  |PM     .     .               . . . 
  | 
  |Lead 
eb|--------------------------------------------------| 
Bb|--------------------------------------------------| 
Gb|--/16~~\14~~\12~~\11~~--/16-16-16-14--/16~--------| 
Db|--------------------------------------------------| 
Ab|--/14~~\12~~\10~~\\9~~--/14-14-14-12--/14~--------| 
Eb|-------------------------------------------3~-2~--|    

eb|-----------------------------------------------------| 
Bb|-----------------------------------------------------| 
Gb|-----9---9-7---7-7-5-5~~------9---9-7---2~~~----4~~--| 
Db|-----9---9-7---7-7-5-5~~------9---9-7---2~~~----4~~--| 
Ab|-----7---7-5---5-5-3-3~~------7---7-5---0~~~----2~~--| 
Eb|--0----0-----0-------------0----0-----0-------0------| 
PM        .     .                  .     .     

  |Rhythm 
eb|-------------------------------------------| 
Bb|-------------------------------------------| 
Gb|-----9---9-7---7-7-5-5~~-----------7--4~~--| 
Db|-----9---9-7---7-7-5-5~~--5--5-5-5-7--4~~--| 
Ab|-----7---7-5---5-5-3-3~~--5--5-5-5-5--2~~--| 
Eb|--0----0-----0------------3--3-3-3---------| 
  |PM     .     .               . . . 
  | 
  |Lead 
eb|-------------------------------------------| 
Bb|-------------------------------------------| 
Gb|--/16~~\14~~\12~~\11~~-------------7--4~~--| 
Db|--------------------------5--5-5-5-7--4~~--| 
Ab|--/14~~\12~~\10~~\\9~~----5--5-5-5-5--2~~--| 
Eb|--------------------------3--3-3-3---------|    
  |PM                           . . . 

eb|------------------------------------------------0~~~--| 
Bb|------------------------------------------------0~~~--| 
Gb|-----------7--4~~------------7--4~~-------------------| 
Db|--5--5-5-5-7--4~~---5--5-5-5-7--4~~-------------2~~~--| 
Ab|--5--5-5-5-5--2~~---5--5-5-5-5--2~~-------------2~~~--| 
Eb|--3--3-3-3----------3--3-3-3----------3~~--2~~--0~~~--| 
PM      . . .             . . . 


*********************************** 

| h   Hammer-on 
| p   Pull-off 
| \   Slide Down 
| /   Slide Up 
| b   Bend 
| r   Release 
| ~   Vibrato / Hold Note 
| PM  Palm muting 

*********************************** 
    	
fixar
fixar inscrever-se

enviado porenviado por: educastilho
cifra enviadaCorrigida por: sem correções
logo top cifrasComente
ico música do artistaMúsicas deste artista
ico curtiuCurtiu?
ico destaqueDestaque
Petaxxon Comunicação Online

Cifras.com.br - Melhor e mais completo site de cifras e tablaturas do Brasil Mais de 1 milhão de acordes de músicas cadastradas desde 2003
As informações contidas no nosso site são colaborações de seus usuários e podem conter erros, sendo assim, não nos responsabilizamos sobre nenhuma destas.

close
menos
mais
close
Cor dos acordes:

Cor da letra:

close
Alinhar acordes a direita Alinhar acordes a esquerda Alinhar acordes em baixo Alinhar acordes no topo
close
  Mostrar todos os acordes Esconder acordes muito fáceis Esconder acordes fáceis Esconder acordes intermediários
redimensionar
glossário