Cifras e Tablaturas
H2o

H2o

Sunday

Cifras Cancelar Versão de Impressão Print

H2o - Sunday

Tom: G

  			

Tuning: EADGBe 
INTRO 
e|---------------------------------------------------------------------------| 
B|---------------------------------------------------------------------------| 
G|---------------------------------------------------------------------------| 
D|-----------------5-4-5-------5-4-5-------5-4-5--7-5-4-5--------------------| 
A|-----------------------------------3-3-3--------5-3-2-3--------------------| 
E|---15-15\--3-3-3-------5-5-5-----------------------------------------------| 

e|---------------------------------------------------------------------------| 
B|---------------------------------------------------------------------------| 
G|---------------------------------------------------------------------------| 
D|---------5-4-5-------5-4-5-5-5-5-5-4-5-7-5-4-5-----------------------------| 
A|---5-5-5-------7-7-7-------3-3-3-------5-3-2-3-----------------------------| 
E|---3-3-3-------5-5-5-------------------------------------------------------| 

e|---------------------------------------------------------------------------| 
B|---------------------------------------------------------------------------| 
G|---------------------------------------------------------------------------| 
D|---------5-4-5-------5-4-5-5-5-5-5-4-5--7----------------------------------| 
A|---5-5-5-------7-7-7-------3-3-3--------5----------------------------------| 
E|---3-3-3-------5-5-5-------------------------------------------------------| 

VERSE 
e|---------------------------------------------------------------------------| 
B|---------------------------------------------------------------------------| 
G|---------------------------------------------------------------------------| 
D|-----5-5-5---5-5-5------------------9-9-9-9-7-7-7-7-5-5-5-5-5-5-5-5--------| 
A|---3------2--------5-X-X-X--X-X-X-X-7-7-7-7-5-5-5-5-3-3-3-3-3-3-3-3--------| 
E|-------------------3-X-X-X--X-X-X-X----------------------------------------| 

e|---------------------------------------------------------------------------| 
B|---------------------------------------------------------------------------| 
G|---------------------------------------------------------------------------| 
D|-----5-5-5---5-5-5------------------9-9-9-9-7-7-7-7-5-5-5-5-5-5-5-5--------| 
A|---3------2--------5-X-X-X--X-X-X-X-7-7-7-7-5-5-5-5-3-3-3-3-3-3-3-3--------| 
E|-------------------3-X-X-X--X-X-X-X----------------------------------------| 

e|---------------------------------------------------------------------------| 
B|---------------------------------------------------------------------------| 
G|---------------------------------------------------------------------------| 
D|-----5-5-5---5-5-5------------------9-9-9-9-7-7-7-7-5-5-5-5-5-5-5-5--------| 
A|---3------2--------5-X-X-X--X-X-X-X-7-7-7-7-5-5-5-5-3-3-3-3-3-3-3-3--------| 
E|-------------------3-X-X-X--X-X-X-X----------------------------------------| 

e|---------------------------------------------------------------------------| 
B|---------------------------------------------------------------------------| 
G|---------------------------------------------------------------------------| 
D|-----5-5-5---5-5-5------------------9-9-9-9-7-7-7-7-5-5-5-5-5-5-5-5-7-7-7-7| 
A|---3------2--------5-X-X-X--X-X-X-X-7-7-7-7-5-5-5-5-3-3-3-3-3-3-3-3-5-5-5-5| 
E|-------------------3-X-X-X--X-X-X-X----------------------------------------| 

Chorus 
e|---------------------------------------------------------------------------| 
B|---------------------------------------------------------------------------| 
G|---------------------------------------------------------------------------| 
D|---------5-4-5-------5-4-5-5-5-5-5-4-5-7-5-4-5-----------------------------| 
A|---5-5-5-------7-7-7-------3-3-3-------5-3-2-3-----------------------------| 
E|---3-3-3-------5-5-5-------------------------------------------------------| 

e|---------------------------------------------------------------------------| 
B|---------------------------------------------------------------------------| 
G|---------------------------------------------------------------------------| 
D|---------5-4-5-------5-4-5-5-5-5-5-4-5--7----------------------------------| 
A|---5-5-5-------7-7-7-------3-3-3--------5----------------------------------| 
E|---3-3-3-------5-5-5-------------------------------------------------------| 

VERSE 
e|---------------------------------------------------------------------------| 
B|---------------------------------------------------------------------------| 
G|---------------------------------------------------------------------------| 
D|-----5-5-5---5-5-5------------------9-9-9-9-7-7-7-7-5-5-5-5-5-5-5-5--------| 
A|---3------2--------5-X-X-X--X-X-X-X-7-7-7-7-5-5-5-5-3-3-3-3-3-3-3-3--------| 
E|-------------------3-X-X-X--X-X-X-X----------------------------------------| 

e|---------------------------------------------------------------------------| 
B|---------------------------------------------------------------------------| 
G|---------------------------------------------------------------------------| 
D|-----5-5-5---5-5-5------------------9-9-9-9-7-7-7-7-5-5-5-5-5-5-5-5--------| 
A|---3------2--------5-X-X-X--X-X-X-X-7-7-7-7-5-5-5-5-3-3-3-3-3-3-3-3--------| 
E|-------------------3-X-X-X--X-X-X-X----------------------------------------| 

e|---------------------------------------------------------------------------| 
B|---------------------------------------------------------------------------| 
G|---------------------------------------------------------------------------| 
D|-----5-5-5---5-5-5------------------9-9-9-9-7-7-7-7-5-5-5-5-5-5-5-5--------| 
A|---3------2--------5-X-X-X--X-X-X-X-7-7-7-7-5-5-5-5-3-3-3-3-3-3-3-3--------| 
E|-------------------3-X-X-X--X-X-X-X----------------------------------------| 

e|---------------------------------------------------------------------------| 
B|---------------------------------------------------------------------------| 
G|---------------------------------------------------------------------------| 
D|-----5-5-5---5-5-5------------------9-9-9-9-7-7-7-7-5-5-5-5-5-5-5-5-7-7-7-7| 
A|---3------2--------5-X-X-X--X-X-X-X-7-7-7-7-5-5-5-5-3-3-3-3-3-3-3-3-5-5-5-5| 
E|-------------------3-X-X-X--X-X-X-X----------------------------------------| 

Chorus 
e|---------------------------------------------------------------------------| 
B|---------------------------------------------------------------------------| 
G|---------------------------------------------------------------------------| 
D|---------5-4-5-------5-4-5-5-5-5-5-4-5-7-5-4-5-----------------------------| 
A|---5-5-5-------7-7-7-------3-3-3-------5-3-2-3-----------------------------| 
E|---3-3-3-------5-5-5-------------------------------------------------------| 

e|---------------------------------------------------------------------------| 
B|---------------------------------------------------------------------------| 
G|---------------------------------------------------------------------------| 
D|---------5-4-5-------5-4-5-5-5-5-5-4-5-7-5-4-5-5-5-4-4-4-------------------| 
A|---5-5-5-------7-7-7-------3-3-3-------5-3-2-3-3-3-2-2-2-5-5-5-5-5-5-------| 
E|---3-3-3-------5-5-5-------------------------------------3-3-3-3-3-3-------| 

BRIDGE 
e|---------------------------------------------------------------------------| 
B|---------------------------------------------------------------------------| 
G|---------------------------------------------------------------------------| 
D|-9-9-7-7-7-5-5-5-5-5-5--5-5-4-4-4----------------------9--------7--5-------| 
A|-7-7-5-5-5-3-3-3-3-3-3--3-3-2-2-2-5-5-5-5-5-5---7--7-7-7-5--5-5-5--3-------| 
E|----------------------------------3-3-3-3-3-3------------------------------| 
 |                                             PM|------|  |-----| 
 |Solo: 
e|-----------------------------------------------12------12-------10---------| 
B|---------------------------------------------------------------------------| 
G|------------------------7b9r7-4-7b9r7--------9----9/11----11/12------------| 
D|---------------------------------------------------------------------------| 
A|---------------------------------------------------------------------------| 
E|---------------------------------------------------------------------------| 


e|---------------------------------------------------------------------------| 
B|---------------------------------------------------------------------------| 
G|---------------------------------------------------------------------------| 
D|--5-5-4-4-4-------------9-9-7-7-7-5-5-5-5-5-5-7-7-7-7-7-7-7-7-7-7-7-7------| 
A|--3-3-2-2-2-5-5-5-5-5-5-7-7-5-5-5-3-3-3-3-3-3-5-5-5-5-5-5-5-5-5-5-5-5--5---| 
E|------------3-3-3-3-3-3------------------------------------------------3---| 
 |                                           PM|-----------------------| 
 |Solo: 
e|---------------------------------------------------------------------------| 
B|--------------------------------------------15-----------------------------| 
G|-----------------------9-11-12-14-12-11-12---------------------------------| 
D|--------------------------------------------12-----------------------------| 
A|-----------------------7-9--10-12-10-9--10---------------------------------| 
E|---------------------------------------------------------------------------| 

Insert Bass Line/ No Guitar 

Chorus 
e|---------------------------------------------------------------------------| 
B|---------------------------------------------------------------------------| 
G|---------------------------------------------------------------------------| 
D|-------------------5-4-5-------5-4-5-5-5-5-5-4-5-7-5-4-5-------------------| 
A|--7-5-4-5----5-5-5-------7-7-7-------3-3-3-------5-3-2-3-------------------| 
E|--5-3-2-3----3-3-3-------5-5-5---------------------------------------------| 

e|---------------------------------------------------------------------------| 
B|---------------------------------------------------------------------------| 
G|---------------------------------------------------------------------------| 
D|---------5-4-5-------5-4-5-5-5-5-5-4-5-7-5-4-5-----------------------------| 
A|---5-5-5-------7-7-7-------3-3-3-------5-3-2-3-----------------------------| 
E|---3-3-3-------5-5-5-------------------------------------------------------| 

e|---------------------------------------------------------------------------| 
B|---------------------------------------------------------------------------| 
G|---------------------------------------------------------------------------| 
D|---------5-4-5-------5-4-5-5-5-5-5-4-5-7-5-4-5-----------------------------| 
A|---5-5-5-------7-7-7-------3-3-3-------5-3-2-3-----------------------------| 
E|---3-3-3-------5-5-5-------------------------------------------------------| 

e|---------------------------------------------------------------------------| 
B|---------------------------------------------------------------------------| 
G|---------------------------------------------------------------------------| 
D|---------5-4-5-------5-4-5-5-5-5-5-4-5-7-5-4-5-----------9---------12--5---| 
A|---5-5-5-------7-7-7-------3-3-3-------5-3-2-3---7-7-7-7-7-9-9-9-9-9---3---| 
E|---3-3-3-------5-5-5-------------------------------------------------------| 
                                                PM|-------| |-------| 
END 


************************************ 

| /   slide up 
| \   slide down 
| h   hammer-on 
| p   pull-off 
| ~   vibrato 
| +   harmonic 
| x   Mute note 
| b   Bend 
| pb  Pre-bend 
| br  Bend release 
| pbr Pre-bend release 
| brb Bend release bend 

************************************ 
    	
fixar
fixar inscrever-se

enviado porenviado por: joaoewerton
cifra enviadaCorrigida por: sem correções
logo top cifrasComente
ico música do artistaMúsicas deste artista
ico curtiuCurtiu?
ico destaqueDestaque
Petaxxon Comunicação Online

Cifras.com.br - Melhor e mais completo site de cifras e tablaturas do Brasil Mais de 1 milhão de acordes de músicas cadastradas desde 2003
As informações contidas no nosso site são colaborações de seus usuários e podem conter erros, sendo assim, não nos responsabilizamos sobre nenhuma destas.

close
menos
mais
close
Cor dos acordes:

Cor da letra:

close
Alinhar acordes a direita Alinhar acordes a esquerda Alinhar acordes em baixo Alinhar acordes no topo
close
  Mostrar todos os acordes Esconder acordes muito fáceis Esconder acordes fáceis Esconder acordes intermediários
redimensionar
glossário