Cifras e Tablaturas
Hail The Sun

Hail The Sun

Bound

Cifras Cancelar Versão de Impressão
cifras

Hail The Sun - Bound

fixar na tela  
Exibindo: vídeo-aula ver clipes redimensionar

Tom:

E

ver outros tons
  
Intro 
Guitar 1: 
E||---------------------------| 
B||--9/11----9----8---\6------| 
G||---------------------------| 
D||---------------------------| 
A||---------------------------| 
E||---------------------------| 


Guitar 2: 
E||---------------------------| 
B||---------------------------| 
G||---------------------------| 
D||--10/12---10---8---\6---5--| 
A||---------------------------| 
E||---------------------------| 



Verse 
Guitar 1: 
E||-----------------------------------|-----------------------------------| 
B||-----------------------------------|-----------------------------------| 
G||--------0-------0-----8-------7----|--------0-------0-----8-------7----| 
D||------8-------8-----6---6---6---6--|------8-------8-----6---6---6---6--| 
A||----6-------6-----8-------8--------|----6-------6-----8-------8--------| 
E||--8-------8------------------------|--8-------8------------------------| 


E||-----------------------------------|---------------------------------------------| 
B||-----------------------------------|---------------------------------------------| 
G||--------0-------0-----8-------7----|--------12----------10---------8--------7----| 
D||------8-------8-----6---6---6---6--|-----10----10----10----10----9---9----9---9--| x3 
A||----6-------6-----8-------8--------|--11----------11----------10-------10--------| 
E||--8-------8------------------------|---------------------------------------------| 


E||---------------------------------------------| 
B||---------------------------------------------| 
G||--------12----------10---------8--------7----| 
D||-----10----10----10----10----9---9----9---9--| 
A||--11----------11----------10-------10--------| 
E||---------------------------------------------| 


Guitar 2: 
0:25 
E||-----------------------------------|-----------------------------------| 
B||--8---8-----6----------------------|--8---8-----6----------------------| 
G||--------------------8-------7------|--------------------8-------7------| 
D||------------------6-------6--------|------------------6-------6--------| 
A||----------------8-------8----------|----------------8-------8----------| 
E||-----------------------------------|-----------------------------------| 


E||-----------------------------------|-----------------------------------| 
B||--8---8-----6----------------------|-----------------------------------| 
G||--------------------8-------7------|--7------5------3------2-----------| 
D||------------------6-------6--------|-----------------------------------| 
A||----------------8-------8----------|-----------------------------------| 
E||-----------------------------------|-----------------------------------| 


E||-----------------------------------| 
B||-----------------------------------| 
G||--7------5------8------10----------| 
D||-----------------------------------| 
A||-----------------------------------| 
E||-----------------------------------| 



Chorus 
Guitar 1: 
E||---------------------------------------------------------------------------------------| 
B||---------------------------------------------------------------------------------------| 
G||---------------------------------------------------------------------------------------| 
D||--5~-------------------------5~-------------------------5~-------------------------5~--| 
A||--3~-------------------------3~-------------------------3~-------------------------3~--| 
E||--4~-------------------------1~-------------------------4~-------------------------1~--| 


Guitar 2: 
E||---------------------------------------------------------------------------------6b8~--| 
B||--------------------------------------------------8--\--6~-----------------------------| 
G||--7~-------------------7--\--3b5~------------------------------------------------------| 
D||---------------------------------------------------------------------------------------| 
A||---------------------------------------------------------------------------------------| 
E||---------------------------------------------------------------------------------------| 



Verse 
Guitar 1: 
E||-----------------------------------|-----------------------------------| 
B||-----------------------------------|-----------------------------------| 
G||--------0-------0-----8-------7----|--------0-------0-----8-------7----| 
D||------8-------8-----6---6---6---6--|------8-------8-----6---6---6---6--| 
A||----6-------6-----8-------8--------|----6-------6-----8-------8--------| 
E||--8-------8------------------------|--8-------8------------------------| 
     . . . . . . . . . . . . . . . .     . . . . . . . . . . . . . . . . 


E||-----------------------------------|---------------------------------------------| 
B||-----------------------------------|---------------------------------------------| 
G||--------0-------0-----8-------7----|--------12----------10---------8--------7----| 
D||------8-------8-----6---6---6---6--|-----10----10----10----10----9---9----9---9--| x2 
A||----6-------6-----8-------8--------|--11----------11----------10-------10--------| 
E||--8-------8------------------------|---------------------------------------------| 
     . . . . . . . . . . . . . . . .     .  .  .  .  .  .  .  .  .  . . . .  . . . 


E||---------------------------------------------| 
B||---------------------------------------------| 
G||--------12----------10---------8--------7----| 
D||-----10----10----10----10----9---9----9---9--| 
A||--11----------11----------10-------10--------| 
E||---------------------------------------------| 
     .  .  .  .  .  .  .  .  .  . . . .  . . . 


Guitar 2: 
E||-----------------------------------|-----------------------------------| 
B||--8---8-----6----------------------|--8---8-----6----------------------| 
G||--------------------8-------7------|--------------------8-------7------| 
D||------------------6-------6--------|------------------6-------6--------| 
A||----------------8-------8----------|----------------8-------8----------| 
E||-----------------------------------|-----------------------------------| 


E||-----------------------------------|-----------------------------------| 
B||--8---8-----6----------------------|-----------------------------------| 
G||--------------------8-------7------|--7------5------3------2-----------| 
D||------------------6-------6--------|-----------------------------------| x2 
A||----------------8-------8----------|-----------------------------------| 
E||-----------------------------------|-----------------------------------| 


E||-----------------------------------| 
B||-----------------------------------| 
G||--7------5------8------10----------| 
D||-----------------------------------| 
A||-----------------------------------| 
E||-----------------------------------| 



Chorus 
Guitar 1: 
E||---------------------------------------------------------------------------------------| 
B||---------------------------------------------------------------------------------------| 
G||---------------------------------------------------------------------------------------| 
D||--5~-------------------------5~-------------------------5~-------------------------5~--| 
A||--3~-------------------------3~-------------------------3~-------------------------3~--| 
E||--4~-------------------------1~-------------------------4~-------------------------1~--| 


Guitar 2: 
E||---------------------------------------------------------------------------6br--b--8~--| 
B||--------------------------------------------------8--\--6~-----------------------------| 
G||--7~-------------------7--\--3b5~------------------------------------------------------| 
D||---------------------------------------------------------------------------------------| 
A||---------------------------------------------------------------------------------------| 
E||---------------------------------------------------------------------------------------| 



Bridge 
Guitar 1: 
E||-------------------------------------------|-------------------------------------------| 
B||-------------------------------------------|-------------------------------------------| 
G||----------------------8-8-8-x-x-7-7-7-x-x--|----------------------8--8--8--7-----------| 
D||--8-8-8-----8-8-8-----6-6-6-x-x-6-6-6-x-x--|--8-8-8-----8-8-8-----6--6--6--6-----------| 
A||--6-6-6-----6-6-6-----8-8-8-x-x-8-8-8-x-x--|--6-6-6-----6-6-6-----8--8--8--8-----------| 
E||--8-8-8-----8-8-8--------------------------|--8-8-8-----8-8-8--------------------------| 


E||-------------------------------------------|---------------------------------------------------| 
B||-------------------------------------------|---------------------------------------------------| 
G||----------------------8-8-8-x-x-7-7-7-x-x--|--12-12-12-12-10-10-10-10-8--8--8--8--7--7--7--7---| 
D||--8-8-8-----8-8-8-----6-6-6-x-x-6-6-6-x-x--|--10-10-10-10-10-10-10-10-9--9--9--9--9--9--9--9---| 
A||--6-6-6-----6-6-6-----8-8-8-x-x-8-8-8-x-x--|--11-11-11-11-11-11-11-11-10-10-10-10-10-10-10-10--| 
E||--8-8-8-----8-8-8--------------------------|---------------------------------------------------| 


E||-------------------------------------------|-------------------------------------------| 
B||-------------------------------------------|-------------------------------------------| 
G||----------------------8-8-8-x-x-7-7-7-x-x--|----------------------8--8--8--7--7--7-----| 
D||--8-8-8-----8-8-8-----6-6-6-x-x-6-6-6-x-x--|--8-8-8-----8-8-8-----6--6--6--6--6--6-----| 
A||--6-6-6-----6-6-6-----8-8-8-x-x-8-8-8-x-x--|--6-6-6-----6-6-6-----8--8--8--8--8--8-----| 
E||--8-8-8-----8-8-8--------------------------|--8-8-8-----8-8-8--------------------------| 


E||-------------------------------------------|---------------------------------------------------| 
B||-------------------------------------------|---------------------------------------------------| 
G||----------------------8-8-8-x-x-7-7-7-x-x--|--12-12-12-12-10-10-10-10-8--8--8--8--7--7--7--7---| 
D||--8-8-8-----8-8-8-----6-6-6-x-x-6-6-6-x-x--|--10-10-10-10-10-10-10-10-9--9--9--9--9--9--9--9---| 
A||--6-6-6-----6-6-6-----8-8-8-x-x-8-8-8-x-x--|--11-11-11-11-11-11-11-11-10-10-10-10-10-10-10-10--| 
E||--8-8-8-----8-8-8--------------------------|---------------------------------------------------| 


E||---------------------------------------------------| 
B||---------------------------------------------------| 
G||--12-12-12-12-10-10-10-10-8--8--8--8--7--7--7--7---| 
D||--10-10-10-10-10-10-10-10-9--9--9--9--9--9--9--9---| 
A||--11-11-11-11-11-11-11-11-10-10-10-10-10-10-10-10--| 
E||---------------------------------------------------| 


Guitar 2: 
E||----------------------------------------------------|----------------------------------------------------| 
B||----------------------------------------------------|----------------------------------------------------| 
G||--12-12-12-----12-12-10-----8-8-8-x-x-10-10-10-x-x--|--12-12-12-----12-12-10-----8--8--8--10-------------| 
D||--x--x--x------x--x--x------x-x-x-x-x-x--x--x--x-x--|--x--x--x------x--x--x------x--x--x--x--------------| 
A||--10-10-10-----10-10-8------6-6-6-x-x-8--8--8--x-x--|--10-10-10-----10-10-8------6--6--6--8--------------| 
E||----------------------------------------------------|----------------------------------------------------| 


E||----------------------------------------------------|----------------------------------------------------| 
B||----------------------------------------------------|--77777777-55555555-33333333-44444444---------------| 
G||--12-12-12-----12-12-10-----8-8-8-x-x-10-10-10-x-x--|----------------------------------------------------| 
D||--x--x--x------x--x--x------x-x-x-x-x-x--x--x--x-x--|----------------------------------------------------| 
A||--10-10-10-----10-10-8------6-6-6-x-x-8--8--8--x-x--|----------------------------------------------------| 
E||----------------------------------------------------|----------------------------------------------------| 


E||----------------------------------------------------|----------------------------------------------------| 
B||----------------------------------------------------|----------------------------------------------------| 
G||--12-12-12-----12-12-10-----8-8-8-x-x-10-10-10-x-x--|--12-12-12-----12-12-10-----8--8--8--10--10--10-----| 
D||--x--x--x------x--x--x------x-x-x-x-x-x--x--x--x-x--|--x--x--x------x--x--x------x--x--x--x---x---x------| 
A||--10-10-10-----10-10-8------6-6-6-x-x-8--8--8--x-x--|--10-10-10-----10-10-8------6--6--6--8---8---8------| 
E||----------------------------------------------------|----------------------------------------------------| 


E||----------------------------------------------------|----------------------------------------------------| 
B||----------------------------------------------------|--77777777-55555555-33333333-44444444---------------| 
G||--12-12-12-----12-12-10-----8-8-8-x-x-10-10-10-x-x--|----------------------------------------------------| 
D||--x--x--x------x--x--x------x-x-x-x-x-x--x--x--x-x--|----------------------------------------------------| 
A||--10-10-10-----10-10-8------6-6-6-x-x-8--8--8--x-x--|----------------------------------------------------| 
E||----------------------------------------------------|----------------------------------------------------| 


E||-----------------------------------------------| 
B||--77777777-55555555-88888888-1010101010101010--| 
G||-----------------------------------------------| 
D||-----------------------------------------------| 
A||-----------------------------------------------| 
E||-----------------------------------------------| 
                               (^10's) 


Chorus 
Guitar 1: 
E||---------------------------------------------------------------------------------------| 
B||---------------------------------------------------------------------------------------| 
G||---------------------------------------------------------------------------------------| 
D||--5~-------------------------5~-------------------------5~-------------------------5~--| 
A||--3~-------------------------3~-------------------------3~-------------------------3~--| 
E||--4~-------------------------1~-------------------------4~-------------------------1~--| 


Guitar 2: 
E||---------------------------------------------------------------------------------6b8~--| 
B||--------------------------------------------------8--\--6~-----------------------------| 
G||--7~-------------------7--\--3b5~------------------------------------------------------| 
D||---------------------------------------------------------------------------------------| 
A||---------------------------------------------------------------------------------------| 
E||---------------------------------------------------------------------------------------| 



Outro 
Guitar 1: 
E||-----------------------------------|-----------------------------------| 
B||-----------------------------------|-----------------------------------| 
G||--------0-------0-----8-------7----|--------0-------0-----8-------7----| 
D||------8-------8-----6---6---6---6--|------8-------8-----6---6---6---6--| 
A||----6-------6-----8-------8--------|----6-------6-----8-------8--------| 
E||--8-------8------------------------|--8-------8------------------------| 


E||----------------------------------------| 
B||----------------------------------------| 
G||--------0-------0-----8----------7------| 
D||------8-------8-----6---6-----6------6--| 
A||----6-------6-----8--------8------------| 
E||--8-------8-----------------------------| 


E||---------------------------------------------------------------------------| 
B||---------------------------------------------------------------------------| 
G||------------12------------------10-----------------8----------------7------| 
D||-------10--------10--------10--------10--------9-------9--------9-------9--| 
A||--11------------------11------------------10---------------10--------------| 
E||---------------------------------------------------------------------------| 


E||--------| 
B||--------| 
G||----0~--| 
D||--1-1~--| 
A||----3~--| 
E||--------| 





***************************** 
-Tablature Legend- 

 h   hammer-on 
 p   pull-off 
 b   bend 
 pb  pre-bend 
 r   release bend 
 ~   hold / vibrato 
 .   palm mute 
 /   slide up 
 \   slide down 
 *   pinch harmonic 
 '   natural harmonic 
 x   mute note 
 T   tap 

***************************** 
  

top 5 | hail the sun
top rock'n roll
Outras músicas do artista letras do(a) Hail The Sun
Top cifras »Top artistas »
Petaxxon Comunicação Online
Cifras.com.br - Melhor e mais completo site de cifras e tablaturas do Brasil
Mais de 1 milhão de acordes de músicas cadastradas desde 2003
As informações contidas no nosso site são colaborações de seus usuários e podem conter erros, sendo assim, não nos responsabilizamos sobre nenhuma destas.
close
menos
mais
close
Cor dos acordes:

Cor da letra:

 

save
close
close
 
redimensionar