Cifras e Tablaturas
Hail The Sun

Hail The Sun

Mourning Sickness

Cifras Cancelar Versão de Impressão
cifras

Hail The Sun - Mourning Sickness

fixar na tela  
Exibindo: vídeo-aula ver clipes redimensionar
  
Intro 

e|-2----2-2-2-2-2---0---|--------------------------|---------------------------|-------------------------| 
B|-3----3-3-3-3-3---0---|--------------------------|---------------------------|-5---5-5-5-5-------------| 
G|-4----4-4-4-4-4-------|-7----7-7-7-7-7---7-7-7-7-|---------------------------|-6---6-6-6-6-6---6-6-6-6-| 
D|-4----4-4-4-4-4-------|-5----5-5-5-5-5---5-5-5-5-|-5----5-5-5-5-5----5-5-5-5-|-------------------------| 
A|-2----2-2-2-2-2-------|-7----7-7-7-7-7---7-7-7-7-|---------------------------|-7---7-7-7-7-8---8-8-8-8-| 
E|----------------------|--------------------------|-3----3-3-3-3-3----3-3-3-3-|-------------------------| 

e|-2----2-2-2-2-2---0---|--------------------------|---------------------------|-------------------------| 
B|-3----3-3-3-3-3---0---|--------------------------|---------------------------|-5---5-5-5-5-------------| 
G|-4----4-4-4-4-4-------|-7----7-7-7-7-7---7-6-6-6-|---------------------------|-6---6-6-6-6-6-----------| 
D|-4----4-4-4-4-4-------|-5----5-5-5-5-5---5-------|-5----5-5-5-5-5----5-5-5-5-|-------------------------| 
A|-2----2-2-2-2-2-------|-7----7-7-7-7-7---7-------|---------------------------|-7---7-7-7-7-8-----------| 
E|----------------------|--------------------------|-3----3-3-3-3-3----3-3-3-3-|-------------------------| 



repeat above part's chords with second guitar part below, distortion on   

e|--------------------|------------------|--------------------|-------------------------| 
B|--------------------|------------------|--------------------|-------------------------| 
G|-11TP----------/14--|-12TP----------11-|-9TP---------7--/11-|-9---9-9-9-9-6---6-6-6-6-| 
D|--------------------|------------------|--------------------|-------------------------| play 2x 
A|--------------------|------------------|--------------------|-------------------------| 
E|--------------------|------------------|--------------------|-------------------------| 



   Lead 
e|-7-----------------------|-------------------------|-------------------------|-------------------------| 
B|---0---------------------|-------------------------|-------------------------|-------7~----------------| 
G|-----7p6-----6h7---------|-------------------------|-----------7---7---7-5-4-|-------------------------| 
D|---------9-7-------------|---------2-4-5p0---0-----|---5p4-7p4---5-----------|-7-----------------6~----| 
A|-----------------9\7\5---|-----0h2---------2---2p0-|-------------------------|-------------------------| 
E|-----------------------7-|-3-----------------------|-3-----------------------|-------------------------| 
 | 
 | 
e|-------------------------|-------------------------|-------------------------|-------------------------| 
B|-------------------------|-8-8-8-8-8-8-8-8-8-7-7-7-|-------------------------|-7-7-7-7-7-7-------------| 
G|-------------------7-7-7-|-------------------------|-9-9-9-9-9-9-9-9-9-7-7-7-|-------------6-6-6-6-6-6-| 
D|-9-9-9-9-9-9-9-9-9-------|-------------------------|-------------------------|-------------------------| 
A|-------------------------|-------------------------|-------------------------|-------------------------| 
E|-------------------------|-------------------------|-------------------------|-------------------------| 

   Lead 
e|-------------7-----------|-------------------------|-------------------------|-------------------------| 
B|-7~----10----------10----|-7~---10p7~---7~---7~----|-------------------------|-------------------------| 
G|-------------------------|-------------------------|-6TP---7TP---6TP---------|-9TP---------6TP---------| 
D|-------------------------|-------------------------|-------------------9TP---|-------------------------| 
A|-------------------------|-------------------------|-------------------------|-------------------------| 
E|-------------------------|-------------------------|-------------------------|-------------------------| 
 | 
 | Rhythm 
e|-------------------------|-------------------------|-------------------------|-------------------------| 
B|-------------------------|-------------------------|-------------------------|-------------------------| 
G|-------------------------|-------------------------|-------------------------|-------------------------| 
D|-------------------------|-------------------------|-------------------------|-------------------------| 
A|-------------------------|-------------------------|-7-7-7-7-7-7-7-7-7-5-5-5-|-4---4------/9-9-9-9-9-9-| 
E|-7-7-7-7-7-7-7-7-7-5-----|-3-----2-----0-----5-----|-------------------------|-------------------------| 


   before verse, distorted guitar plays G chord but other notes are clean 
e|----------------------------------------------------------| 
B|----------------------------------------------------------| 
G|-4--------------------4--------------2--------------------| 
D|-5-----0--2--4--2--0--5-----0--2--4-----4--2--0-----------| 
A|-5--2--2--------------5--2--2--------------------2--0-----| 
E|-3--3-----------------3--3-----------------------------2--| 
   >                    > 


Verse 

   2nd and 4th bars is guitar 2                            
e|-----------------------|-7p5--7p5--7p5--7p5-|------------------------|-10p7-10p7-10p7-10p7-| 
B|-----------------------|--------------------|-3---2---0--------------|-10p7-10p7-10p7-10p7-| 
G|-----------------------|--------------------|-------------2----------|---------------------| 
D|---------0---2---4-----|--------------------|------------------4-----|---------------------| 
A|-----2-----------------|--------------------|------------------------|---------------------| 
E|-3---------------------|--------------------|------------------------|---------------------| 


e|-----------------------|-12p10-12p10-12p10-12p10-|-----------------------|-14p12-14p12-14p12-14p12-| 
B|-----------------------|-12p10-12p10-12p10-12p10-|-----------------------|-14p12-14p12-14p12-14p12-| 
G|-----------------------|-------------------------|-----------------------|-------------------------| 
D|---------0---2---4-----|-------------------------|---------0---2----4----|-------------------------| 
A|-----2-----------------|-------------------------|-----1-----------------|-------------------------| 
E|-0---------------------|-------------------------|-2---------------------|-------------------------| 

play verse 2x total 



Staccato Riff 
  (1:16) 
e|-------------------------|-------------------------| 
B|-------------------------|-------------------------| 
G|-6-x-6-x-6-x-6-6-x-x-6-x-|-6-x-6-x-6-6-x-x-6-6-x-x-|  play 4x 
D|-------------------------|-------------------------| 
A|-------------------------|-------------------------| 
E|-------------------------|-------------------------| 


e|-------------------------|-------------------------| 
B|-------------------------|-------------------------| 
G|-6-x-6-x-6-x-6-6-x-x-6-x-|-6-x-6-x-6-6-x-x-6---x-x-|  play 2x 
D|-9---9---9---9-------9---|-9---9---9-------9-------| 
A|-------------------------|-------------------------| 
E|-------------------------|-------------------------| 

e|-------------------------|-------------------------| 
B|-7---7---7---7-7-----7---|-7---7---7-7-----7-------| 
G|-6-x-6-x-6-x-6-6-x-x-6-x-|-6-x-6-x-6-6-x-x-6---x-x-| 
D|-------------------------|-------------------------| 
A|-------------------------|-------------------------| 
E|-------------------------|-------------------------| 

e|-------------------------|-------------------------| 
B|-------------------------|-------------------------| 
G|-6-x-6-x-6-x-6-6-x-x-6-x-|-6-x-6-x-6-6-x-x-6-------|  play 4x 
D|-8---8---8---8-8-----8---|-8---8---8-8-----8-------| 
A|-5---5---5---5-5-----5---|-5---5---5-5-----5-------| 
E|-------------------------|-------------------------| 



Chorus 

   3/4 time, doubled one octave down 
e|-------------------|--------------------| 
B|-17b19-17-15-14----|-14b15r-------------| 
G|----------------16-|----------16----16--|   play 3x 
D|-------------------|-------------16-----| 
A|-------------------|--------------------| 
E|-------------------|--------------------| 

e|---------------------|---------------------| 
B|-15---14-------------|-14------------------| 
G|-----------16---14---|-16b18---------------| 
D|---------------------|---------------------| 
A|---------------------|---------------------| 
E|---------------------|---------------------| 

e|-------------------|--------------------| 
B|-17b19-17-15-14----|-14b15r-------------| 
G|----------------16-|----------16----16--|   play 3x 
D|-------------------|-------------16-----| 
A|-------------------|--------------------| 
E|-------------------|--------------------| 

e|---------------------|---------------------| 
B|-15---14-------------|-14------------------| 
G|-----------16---14---|-16b18---------------| 
D|---------------------|---------------------| 
A|---------------------|---------------------| 
E|---------------------|---------------------| 

  (2:04) 
e|---------------------|-----------------2----|---------------------|-----------------5----| 
B|-3---3---3---x-x-x-x-|-0---0---0---------3--|-3---3---3---x-x-x-x-|-0---0---0-------5----| 
G|-2---2---2---x-x-x-x-|-0---0---0------------|-2---2---2---x-x-x-x-|-0---0---0------------| 
D|-0---0---0---x-x-x-x-|-0---0---0------------|-0---0---0---x-x-x-x-|-0---0---0------------| 
A|-0---0---0-----------|-x---x---x------------|-0---0---0-----------|-x---x---x------------| 
E|---------------------|-3---3---3------------|---------------------|-3---3---3------------| 

e|---------------------|-----------------2----|---------------------| 
B|-3---3---3---x-x-x-x-|-0---0---0---------3--|-0---0---0---x-x-x-x-| 
G|-2---2---2---x-x-x-x-|-0---0---0------------|-4---4---4---x-x-x-x-| 
D|-0---0---0---x-x-x-x-|-0---0---0------------|-4---4---4---x-x-x-x-| 
A|-0---0---0-----------|-x---x---x------------|-2---2---2---x-x-x-x-| 
E|---------------------|-3---3---3------------|---------------------| 



Bridge 1 
e|----------------------|----------------------|---------------------| 
B|-0----0----0--0--0----|-0----0----0--0--0----|---------------------| 
G|-4----4----2--4--2----|-4----4----2--4--2----|---------------------| 
D|-0----0----0--0--0----|-0----0----0--0--0----|-4-------------------| 
A|-x----x----x--x--x----|-x----x----x--x--x----|-4-------------------| 
E|-3----3----3--3--3----|-3----3----3--3--3----|-2-------------------| 

e|-2----2----0-2-0--|-2----2----0-2-0--|---------------|---------------| 
B|-3----3----3-3-3--|-3----3----3-3-3--|---------------|---------------| 
G|-0----0----0-0-0--|-0----0----0-0-0--|-6-------------|---------------| 
D|------------------|------------------|-6-------------|-7-------------| 
A|------------------|------------------|-4-------------|-4-------------| 
E|------------------|------------------|-4-------------|-5-------------| 



Intro Reprise 

   Lead Guitar 
e|-2----2-2-2---2-2----5-|-------------------------|-------------------------|-----------------------| 
B|-3----3-3-3---3-3----5-|-------------------------|-------------------------|-5---5-5---------------| 
G|-4----4-4-4---4-4------|-7---7-7-7---7-7---7--7--|-------------------------|-6---6-6---6---6-6-6-6-| 
D|-4----4-4-4---4-4------|-5---5-5-5---5-5---5--5--|-5---5-5-5---5-5---5--5--|-----------------------| play 
A|-2----2-2-2---2-2------|-7---7-7-7---7-7---7--7--|-------------------------|-7---7-7---8---8-8-8-8-|  2x 
E|-----------------------|-------------------------|-3---3-3-3---3-3---3--3--|-----------------------| 
 | 
 | Guitar 2  
e|--------------------|------------------|--------------------|-------------------------| 
B|--------------------|------------------|--------------------|-------------------------| 
G|-11TP----------/14--|-12TP----------11-|-9TP---------7--/11-|-9---9-9-9-9-6---6-6-6-6-| 
D|--------------------|------------------|--------------------|-------------------------| play 2x 
A|--------------------|------------------|--------------------|-------------------------| 
E|--------------------|------------------|--------------------|-------------------------| 

   Lead 
e|-7-----------------------|-------------------------|-------------------------|-------------------------| 
B|---0---------------------|-------------------------|-------------------------|-------7~----------------| 
G|-----7p6-----6h7---------|-------------------------|-----------7---7---7-5-4-|-------------------------| 
D|---------9-7-------------|---------2-4-5p0---0-----|---5p4-7p4---5-----------|-7-----------------6~----| 
A|-----------------9\7\5---|-----0h2---------2---2p0-|-------------------------|-------------------------| 
E|-----------------------7-|-3-----------------------|-3-----------------------|-------------------------| 
 | 
 | Guitar 2 
e|-------------------------|-------------------------|-------------------------|-------------------------| 
B|-------------------------|-8-8-8-8-8-8-8-8-8-7-7-7-|-------------------------|-7-7-7-7-7-7-------------| 
G|-------------------7-7-7-|-------------------------|-9-9-9-9-9-9-9-9-9-7-7-7-|-------------6-6-6-6-6-6-| 
D|-9-9-9-9-9-9-9-9-9-------|-------------------------|-------------------------|-------------------------| 
A|-------------------------|-------------------------|-------------------------|-------------------------| 
E|-------------------------|-------------------------|-------------------------|-------------------------| 

   Lead 
e|-------------7-----------|-------------------------|-------------------------|-------------------------| 
B|-7~----10----------10----|-7~---10p7~---7~---7~----|-------------------------|-------------------------| 
G|-------------------------|-------------------------|-6TP---7TP---6TP---------|-9TP---------6TP---------| 
D|-------------------------|-------------------------|-------------------9TP---|-------------------------| 
A|-------------------------|-------------------------|-------------------------|-------------------------| 
E|-------------------------|-------------------------|-------------------------|-------------------------| 
 | 
 | Guitar 2 
e|-------------------------|-------------------------|-------------------------|-------------------------| 
B|-------------------------|-------------------------|-------------------------|-------------------------| 
G|-------------------------|-------------------------|-------------------------|-------------------------| 
D|-------------------------|-------------------------|-------------------------|-------------------------| 
A|-------------------------|-------------------------|-7-7-7-7-7-7-7-7-7-5-5-5-|-4---4------/9-9-9-9-9-9-| 
E|-7-7-7-7-7-7-7-7-7-5-----|-3-----2-----0-----5-----|-------------------------|-------------------------| 

drum break, then resume  


e|------------------------------|----------------------------|-------------------------|--------------------| 
B|------------------------------|----------------------------|-------------------------|--------------------| 
G|------------------------------|-------------2PH~-----------|-------------------------|------------2h4~----| 
D|------------0--2--4--2--0-----|----0--2--4--------4--2--4--|-------0--2--3--2--0-----|----0--2--4---------| 
A|---------2-----------------0--|-2--------------------------|----2-----------------0--|-2------------------| 
E|/15\--3-----------------------|----------------------------|-3-----------------------|--------------------| 



Bridge 2 
   2nd guitar's chords listed above guitar 1 part 

   G                            Bm                        G                    Bm 
e|----------------------------|-------------------------|-/14TP--------------|-10TP---------------| 
B|-2------------2-------------|--------3------2---------|-/14TP--------------|-12TP---------------| 
G|-4b6----------4b6-----------|-4-------------4b6-------|--------------------|--------------------| 
D|----------------------------|-------------------------|--------------------|--------------------| 
A|----------------------------|-------------------------|--------------------|--------------------| 
E|----------------------------|-------------------------|--------------------|--------------------| 



Clean Riff 1 
   (3:16) 

   Guitar 1 
e|-------------------------------------|--------------------------------------| 
B|-7--7--7--7--7--7--7--7--7--7--7-----|-10-10-10-10-10-10-10-10-10-10-10-----| 
G|-6--6--6--6--6--6--6--6--6--6--6-----|--9--9--9--9--9--9--9--9--9--9--9-----| 
D|-7--7--7--7--7--7--7--7--7--7--7-----|-11-11-11-11-11-11-11-11-11-11-11-----| 
A|-5--5--5--5--5--5--5--5--5--5--5-----|--------------------------------------| 
E|-------------------------------------|--------------------------------------| 

e|-------------------------------------|--------------------------------------| 
B|-15-15-15-15-15-15-15-15-15-15-15----|-14-14-14-14-14-14-14-----------------| 
G|-14-14-14-14-14-14-14-14-14-14-14----|-14-14-14-14-14-14-14-----------------| 
D|-12-12-12-12-12-12-12-12-12-12-12----|-12-12-12-12-12-12-12-----------------| 
A|-------------------------------------|--------------------------------------| 
E|-------------------------------------|--------------------------------------| 


   Guitar 2 part, along with above Guitar 1 part 
e|-------------------------------------| 
B|-------------------------------------| 
G|-7--7--7--9--9--9--6--6--6--6--6--6--| play 4x, but stop halfway on last repeat 
D|-------------------------------------| 
A|-5--5--5--7--7--7--4--4--4--4--4--4--| 
E|-------------------------------------| 


   going into next section 
e|-------------------------------------| 
B|-------------------------------------| 
G|-------------------6--6--6--6--6--6--| play 4x, but stop halfway on last repeat 
D|-------------------------------------| 
A|-------------------4--4--4--4--4--4--| 
E|-------------------------------------| 



Heavy Riff 1 
e|-------------------------------------|--------------------------------------| 
B|-------------------------------------|--------------------------------------| 
G|-------------------------------------|--------------------------------------| 
D|-4--4--4--4--4--4--4--4--4--4--4--4--|-0--0--0--2--2--2--0--0--0--0--0--0---| 
A|-5--5--5--5--5--5--5--5--5--5--5--5--|-1--1--1--1--1--1--1--1--1--1--1--1---| 
E|-------------------------------------|--------------------------------------| 

e|-------------------------------------|--------------------------------------| 
B|-------------------------------------|--------------------------------------| 
G|-------------------------------------|--------------------------------------| 
D|-0--0--0--2--2--2--0--0--0--0--0--0--|-3--3--3--3--3--3--2--2--2--2--2--2---| 
A|-1--1--1--1--1--1--1--1--1--1--1--1--|-5--5--5--5--5--5--4--4--4--4--4--4---| 
E|-3--3--3--3--3--3--3--3--3--3--3--3--|-6--6--6--6--6--6--5--5--5--5--5--5---| 

   Play Heavy Riff 4x total. Guitar 2 part in last section also plays throughout 



Build-up 
   Guitar 1 
e|-7-----7---5--7--5---|-7-----7---5--7--5---|-7-----7---5--7--5---|-7-----7---5--7--5---| 
B|-7-----7---5--7--5---|-7-----7---5--7--5---|-7-----7---5--7--5---|-7-----7---5--7--5---| 
G|---------------------|---------------------|---------------------|---------------------| 
D|---------------------|---------------------|---------------------|---------------------| play 4x 
A|---------------------|---------------------|---------------------|---------------------| 
E|---------------------|---------------------|---------------------|---------------------| 
 | 
 | Guitar 2 
e|---------------------|---------------------|---------------------|---------------------| 
B|---------------------|---------------------|---------------------|---------------------| 
G|-4-----4---2--4--2---|-4-----4---2--4--2---|-4-----4---2--4--2---|-4-----4---2--4--2---| 
D|-4-----4---2--4--2---|-4-----4---2--4--2---|-4-----4---2--4--2---|-4-----4---2--4--2---| play 4x 
A|---------------------|---------------------|---------------------|---------------------| 
E|---------------------|---------------------|---------------------|---------------------| 

on last repeat Guitar 1 adds some bends in but plays the same notes mostly 



Last Chorus 

   3/4 time, doubled one octave down 
e|-------------------|--------------------| 
B|-17b19-17-15-14----|-14b15r-------------| 
G|----------------16-|----------16----16--|   play 3x 
D|-------------------|-------------16-----| 
A|-------------------|--------------------| 
E|-------------------|--------------------| 

e|---------------------|---------------------| 
B|-15---14-------------|-14------------------| 
G|-----------16---14---|-16b18---------------| 
D|---------------------|---------------------| 
A|---------------------|---------------------| 
E|---------------------|---------------------| 

e|-------------------|--------------------| 
B|-17b19-17-15-14----|-14b15r-------------| 
G|----------------16-|----------16----16--|   play 3x 
D|-------------------|-------------16-----| 
A|-------------------|--------------------| 
E|-------------------|--------------------| 

e|---------------------|---------------------| 
B|-15---14-------------|-14------------------| 
G|-----------16---14---|-16b18---------------| 
D|---------------------|---------------------| 
A|---------------------|---------------------| 
E|---------------------|---------------------| 

e|---------------------|-----------------2----|---------------------|--------------| 
B|-3---3---3---x-x-x-x-|-0---0---0---------3--|-0---0---0---x-x-x-x-|-0---0---0----| 
G|-2---2---2---x-x-x-x-|-0---0---0------------|-4---4---4---x-x-x-x-|-0---0---0----| 
D|-0---0---0---x-x-x-x-|-0---0---0------------|-4---4---4---x-x-x-x-|-0---0---0----| 
A|-0---0---0-----------|-x---x---x------------|-2---2---2---x-x-x-x-|-x---x---x----| 
E|---------------------|-3---3---3------------|---------------------|-3---3---3----| 


Ending 
e|-------------------------|-------------------------| 
B|-------------------------|-------------------------| 
G|-6-x-6-x-6-x-6-6-x-x-6-x-|-6-x-6-x-6-6-x-x-6-6-x-x-|  play 4x 
D|-------------------------|-------------------------| 
A|-------------------------|-------------------------| 
E|-------------------------|-------------------------| 



************************************ 

| x   Dead note 
| h   Hammer-on 
| p   Pull-off 
| r   Release 
| >   Accented note 
| b   Bend 
| /   Slide up 
| \   Slide down 
| ~   Vibrato 
| PM  Palm mute 
| TP  Tremelo Picking 

************************************ 
  

cifra enviadasem correções
enviado porenviada por:ubirbomfim
top 5 | hail the sun
top rock'n roll
Outras músicas do artista letras do(a) Hail The Sun
Top cifras »Top artistas »
Petaxxon Comunicação Online
Cifras.com.br - Melhor e mais completo site de cifras e tablaturas do Brasil
Mais de 1 milhão de acordes de músicas cadastradas desde 2003
As informações contidas no nosso site são colaborações de seus usuários e podem conter erros, sendo assim, não nos responsabilizamos sobre nenhuma destas.
close
menos
mais
close
Cor dos acordes:

Cor da letra:

 

save
close
close
 
redimensionar