Cifras e Tablaturas
Halcyon Days

Halcyon Days

Clear

Cifras Cancelar Versão de Impressão
cifras

Halcyon Days - Clear

fixar na tela  
Exibindo: vídeo-aula ver clipes redimensionar

Tom:

  
Intro 

e|--------------------------------------12------------12--------12--------12----------| 
B|------------------------------------------10-----------10--------10--------10----10-| 
G|---------------------------------------------13-----------13--------13--------13----| 
D|-15--------------15---15-15-10--10-10-----------------------------------------------| 
A|-12--12-12-12-12-12---12-12-8---8--8------------------------------------------------| 
E|-12--12-12-12-12-12---12-12-7---7--7------------------------------------------------| 

e|------------------------------------------------------------------------------------| 
B|------------------------------------------------------------------------------------| 
G|------------------------------------------------------------------------------------| 
D|-15--------------15---15-15-10--10-10-12--12-12-12--12-12-12--10-10-10--8--8--8-----| 
A|-12--12-12-12-12-12---12-12-8---8--8--8---8--8--8---8--8--8---8--8--8---12-12-12----| 
E|-12--12-12-12-12-12---12-12-7---7--7--8---8--8--8---8--8--8---8--8--8---8--8--8-----| 

e|--------------------------------------12------------12--------12--------12----------| 
B|------------------------------------------10-----------10--------10--------10----10-| 
G|---------------------------------------------13-----------13--------13--------13----| 
D|-15--------------15---15-15-10--10-10-----------------------------------------------| 
A|-12--12-12-12-12-12---12-12-8---8--8------------------------------------------------| 
E|-12--12-12-12-12-12---12-12-7---7--7------------------------------------------------| 

e|------------------------------------------------------------------------------------| 
B|------------------------------------------------------------------------------------| 
G|------------------------------------------------------------------------------------| 
D|-15--------------15---15-15-10--10-10-3---3-----------------------------------------| 
A|-12--12-12-12-12-12---12-12-8---8--8--3---3-----------------------------------------| 
E|-12--12-12-12-12-12---12-12-7---7--7--3---3-----------------------------------------| 


Verse 

e|-------------------------------------------------------------------------------| 
B|-------------------------------------------------------------------------------| 
G|------------------------------------------------12-12-12-----------------------| 
D|-12-12-12-12------15-15-15-14-14-14-10-12-10-10-10-10-10-10-10-10-10-----------| 
A|-8--8--8--8-------12-12-12-10-10-10-8--8--8--8--8--8--8--8--8--8--8------------| 
E|-8--8--8--8-------12-12-12-10-10-10-8--8--8--8-----------7--7--7--7------------| 

Lead 

e|---------------------------------------------------------------------------| 
B|---------------------------------------------------------------------------| 
G|-10-9--------9----14-12-------10----10-9-----------------------------------| 
D|-------10-10---10-------14-14----14------10--------------------------------| 
A|--------------------------------------------8-8-8-8-10-10-10-10-7-7-7------| 
E|---------------------------------------------------------------------------| 


Pre-Chorus 

e|-13-12-------------------------------13-12-------13---15---12--------------| 
B|-------13-13/15----------------------------13------------------------------| 
G|----------------14----------------------------14---------------------------| 
D|-------------------15-17-14-10-12-10---------------------------------------| 
A|---------------------------------------------------------------------------| 
E|---------------------------------------------------------------------------| 

e|-------1-----------------------------------------------0-------------------| 
B|---------1---------------------------------6-------------6-----------------| 
G|-----3-----3-----------------------------7---7-------5-----5---------------| 
D|---3---------3-------------------------7-------7---5-----------------------| 
A|-1-----------------------------------5-----------3-------------------------| 
E|---------------------------------------------------------------------------| 


Chorus 

e|------------------------------------------------------------------------------------------------| 
B|------------------------------------------------------------------------------------------------| 
G|------------------------------------------------------------------------------------------------| 
D|-10-10-10-10-10-10-10-10-10-10-10-10-10---------12-12-12-12-12-12-12-12-12-12-12-12-12-12-12-12-| 
A|-8--8--8--8--8--8--8--8--8--8--8--8--8----------10-10-10-10-10-10-10-10-10-10-10-10-10-10-10-10-| 
E|-8--8--8--8--8--8--8--8--8--8--8--8--8-3--3--3--10-10-10-10-10-10-10-10-10-10-10-10-10-10-10-10-| 

e|-------------------------------------------------------------------------------------| 
B|-------------------------------------------------------------------------------------| 
G|-------------------------------------12-12-12-12-12-12-12-12-------------------------| 
D|-15-15-15-15-15-15-15-15-15-15-15-15-10-10-10-10-10-10-10-10-10-10-10-10-10-10-10-10-| 
A|-12-12-12-12-12-12-12-12-12-12-12-12-8--8--8--8--8--8--8--8--8--8--8--8--8--8--8--8--| 
E|-12-12-12-12-12-12-12-12-12-12-12-12-------------------------7--7--7--7--7--7--7--7--| 

Lead 

e|------------------------------------------------------------------------------12-12-12-13-13-------| 
B|---------------------------------------------------------------------------------------------12-12-| 
G|-14-14-14-12-12-12--9--9--9--10-10-10--12-12-10-10-14-14-14-12-12-12--9--9--9----------------------| 
D|---------------------------------------------------------------------------------------------------| 
A|---------------------------------------------------------------------------------------------------| 
E|---------------------------------------------------------------------------------------------------| 

e|------------------------------------------------------------------------------12-12-12-13-13-15-15-| 
B|---------------------------------------------------------------------------------------------------| 
G|-14-14-14-12-12-12--9--9--9--10-10-10--12-12-10-10-14-14-14-12-12-12--9--9--9----------------------| 
D|---------------------------------------------------------------------------------------------------| 
A|---------------------------------------------------------------------------------------------------| 
E|---------------------------------------------------------------------------------------------------| 


Break 

e|-------------------------------------------------------------------------| 
B|-------------------6-6-6-6-6-6-------------------------------------------| 
G|-------------------9-9-9-9-9-9-------------------------------------------| 
D|-0-0-0-0-0-0-0-0-0-7-7-7-7-7-7-0-0-0-0-0-0-0-0-0-------------------------| 
A|-0-0-0-0-0-0-0-0-0-8-8-8-8-8-8-0-0-0-0-0-0-0-0-0-8-8-8-8-----------------| 
E|-0-0-0-0-0-0-0-0-0-------------0-0-0-0-0-0-0-0-0-7-7-7-7-3-3-3-----------| 

e|-------------------------------------------------------------------------| 
B|-------------------6-6-6-6-6-6-------------------------------------------| 
G|-------------------9-9-9-9-9-9-------------------------------------------| 
D|-0-0-0-0-0-0-0-0-0-7-7-7-7-7-7-0-0-0-0-0-0-0-0-0-------------------------| 
A|-0-0-0-0-0-0-0-0-0-8-8-8-8-8-8-0-0-0-0-0-0-0-0-0-8--8--8----8-8-8--------| 
E|-0-0-0-0-0-0-0-0-0-------------0-0-0-0-0-0-0-0-0-7--7--7----7-7-7--------| 


Outro 

e|-13-13-13-12-12-12-------------------------------13-13-13-12-12-12-------------------------------| 
B|-------------------------------------------------------------------14-14-14-17-17-17-17-17-17-17-| 
G|-------------------14-14-14-17-17-17-------------------------------------------------------------| 
D|-------------------------------------14-14-15-15-------------------------------------------------| 
A|-------------------------------------------------------------------------------------------------| 
E|-------------------------------------------------------------------------------------------------| 


************************************ 

| /  Slide up 

************************************ 
  

top 5 | halcyon days
top rock'n roll
Outras músicas do artista letras do(a) Halcyon Days
Top cifras »Top artistas »
Petaxxon Comunicação Online
Cifras.com.br - Melhor e mais completo site de cifras e tablaturas do Brasil
Mais de 1 milhão de acordes de músicas cadastradas desde 2003
As informações contidas no nosso site são colaborações de seus usuários e podem conter erros, sendo assim, não nos responsabilizamos sobre nenhuma destas.
close
menos
mais
close
Cor dos acordes:

Cor da letra:

 

save
close
close
 
redimensionar