Cifras e Tablaturas
Halestorm

Halestorm

Drunk Pretty

Cifras Cancelar Versão de Impressão
cifras

Halestorm - Drunk Pretty

fixar na tela  
Exibindo: vídeo-aula ver clipes redimensionar

Tom:

  
Intro 

e|---------------------------|------------------------|---------------------------|------------------------| 
B|-12------------12----------|-------------14-13------|-12------------12----------|------------------------| 
G|-12-----12-----12----------|-------------14-13------|-12-----12-----12----------|------------------------| 
D|--------14--------------14-|---14-----14------------|--------14-----------------|------------------------| 
A|---------------------------|------------------------|---------------------------|-7--7--7--7--7--7--7--7-| 
E|---------------------------|------------------------|---------------------------|-0--0--0--0--0--0--0--0-| 



Verse 

e|------------------------|------------------------|----------------------|-------------------------| 
B|------------------------|------------------------|----------------------|-------------------------| 
G|------------------------|------------------------|-9------12------14----|---12------15---14/15----| 
D|------------------------|------------------------|-9------12------14----|---12------15---14/15----| 
A|-7--7--7--7--7--7--7--7-|-7--7--7--7--7--7--7--7-|-7------10------12----|---10------13---12/13----| 
E|-0--0--0--0--0--0--0--0-|-0--0--0--0--0--0--0--0-|----------------------|-------------------------| 

play 4x, but slide on end only on 2nd time 




PreChorus 

e|-------------------------|------------------------| 
B|-------------------------|------------------------| 
G|-------------------------|------------------------| 
D|-9-----9-----7-----7-----|-5--5--5--5--5--5--5--5-| play 4x 
A|-10----10----9-----9-----|-7--7--7--7--7--7--7--7-| 
E|-------------------------|-0--0--0--0--0--0--0--0-| 



Chorus 
  
   Guitar 1 
e|-------------------------|-------------------------| 
B|-------------------------|-------------------------| 
G|-------------------------|-9--9--9--9--9--9--9--9--| 
D|-7--7--7--7--7--7--7--7--|-9--9--9--9--9--9--9--9--| play 3x 
A|-7--7--7--7--7--7--7--7--|-7--7--7--7--7--7--7--7--| 
E|-5--5--5--5--5--5--5--5--|-------------------------| 
 | 
 | Guitar 2 
e|-------------------------|-------------------------| 
B|-------------------------|-------------------------| 
G|------12-----12-12-------|-12-12-------12----------|  
D|------12-----12-12-------|-12-12-------12----------| play 3x 
A|------11-----11-11-------|-11-11-------11----------| 
E|-------------------------|-------------------------| 
  "Drunk Pretty! ..." 


Chorus Ending: 

   Guitar 1 
e|-------------------------| 
B|-------------------------| 
G|-9--9--9--9--9--9--9--9--| 
D|-9--9--9--9--9--9--9--9--| 
A|-7--7--7--7--7--7--7--7--| 
E|-------------------------| 
 | 
 | Guitar 2 
e|-------------------------| 
B|-------------------------| 
G|-12-12-------12----12----|  
D|-12-12-------12----12----| 
A|-11-11-------11----------| 
E|-------------------------| 



PreVerse 

e|---------------------------|------------------------| 
B|-12------------12----------|-------------14-13------| 
G|-12-----12-----12----------|-------------14-13------| 
D|--------14--------------14-|---14-----14------------| 
A|---------------------------|------------------------| 
E|---------------------------|------------------------| 



verse 2 

e|------------------------|------------------------|----------------------|-------------------------| 
B|------------------------|------------------------|----------------------|-------------------------| 
G|------------------------|------------------------|-9------12------14----|---12------15---14/15----| 
D|------------------------|------------------------|-9------12------14----|---12------15---14/15----| 
A|-7--7--7--7--7--7--7--7-|-7--7--7--7--7--7--7--7-|-7------10------12----|---10------13---12/13----| 
E|-0--0--0--0--0--0--0--0-|-0--0--0--0--0--0--0--0-|----------------------|-------------------------| 

play 4x, but slide on end only on 2nd time 



PreChorus 2 

e|-------------------------|------------------------| 
B|-------------------------|------------------------| 
G|-------------------------|------------------------| 
D|-9-----9-----7-----7-----|-5--5--5--5--5--5--5--5-| play 4x 
A|-10----10----9-----9-----|-7--7--7--7--7--7--7--7-| 
E|-------------------------|-0--0--0--0--0--0--0--0-| 



Chorus 2 
  
   Guitar 1 
e|-------------------------|-------------------------| 
B|-------------------------|-------------------------| 
G|-------------------------|-9--9--9--9--9--9--9--9--| 
D|-7--7--7--7--7--7--7--7--|-9--9--9--9--9--9--9--9--| play 3x 
A|-7--7--7--7--7--7--7--7--|-7--7--7--7--7--7--7--7--| 
E|-5--5--5--5--5--5--5--5--|-------------------------| 
 | 
 | Guitar 2 
e|-------------------------|-------------------------| 
B|-------------------------|-------------------------| 
G|------12-----12-12-------|-12-12-------12----------|  
D|------12-----12-12-------|-12-12-------12----------| play 3x 
A|------11-----11-11-------|-11-11-------11----------| 
E|-------------------------|-------------------------| 
  "Drunk Pretty! ..." 




PreChorus 3 

e|-------------------------|------------------------| 
B|-------------------------|------------------------| 
G|-------------------------|------------------------| 
D|-9-----9-----7-----7-----|-5--5--5--5--5--5--5--5-| play 4x 
A|-10----10----9-----9-----|-7--7--7--7--7--7--7--7-| 
E|-------------------------|-0--0--0--0--0--0--0--0-| 



Chorus 3 
  
   Guitar 1 
e|-------------------------|-------------------------| 
B|-------------------------|-------------------------| 
G|-------------------------|-9--9--9--9--9--9--9--9--| 
D|-7--7--7--7--7--7--7--7--|-9--9--9--9--9--9--9--9--| play 3x 
A|-7--7--7--7--7--7--7--7--|-7--7--7--7--7--7--7--7--| 
E|-5--5--5--5--5--5--5--5--|-------------------------| 
 | 
 | Guitar 2 
e|-------------------------|-------------------------| 
B|-------------------------|-------------------------| 
G|------12-----12-12-------|-12-12-------12----------|  
D|------12-----12-12-------|-12-12-------12----------| play 3x 
A|------11-----11-11-------|-11-11-------11----------| 
E|-------------------------|-------------------------| 
  "Drunk Pretty! ..." 



Outro Bridge 

e|---------12-------12---------------| 
B|---------15b17----15b17------------| 
G|----------------------------12-----| 
D|----------------------------12-----|  play 4x, omitting last chord on 4th time 
A|-(0)------------------------11-----| 
E|-----------------------------------| 



Outro 

e|---------------------------|------------------------|---------------------------|------------------------| 
B|-12------------12----------|-------------14-13------|-12------------12----------|------------------------| 
G|-12-----12-----12----------|-------------14-13------|-12-----12-----12----------|------------------------| 
D|--------14--------------14-|---14-----14------------|--------14--------------14-|------------------------| 
A|---------------------------|------------------------|---------------------------|-7--7--7--7--7--7--7--7-| 
E|---------------------------|------------------------|---------------------------|-0--0--0--0--0--0--0--0-| 

e|---------------------------|------------------------|---------------------------|------------------------| 
B|-12------------12----------|-------------14-13------|-12------------12----------|-------------14-13------| 
G|-12-----12-----12----------|-------------14-13------|-12-----12-----12----------|-------------14-13------| 
D|--------14--------------14-|---14-----14------------|--------14--------------14-|---14-----14------------| 
A|---------------------------|------------------------|---------------------------|------------------------| 
E|---------------------------|------------------------|---------------------------|------------------------| 



************************************ 

| (n) Ghost note 
| b   Bend 
| /   Slide up 
| \   Slide down 

************************************ 
  

top 5 | halestorm
top heavy metal
Outras músicas do artista letras do(a) Halestorm
2.
Amen
Top cifras »Top artistas »
Petaxxon Comunicação Online
Cifras.com.br - Melhor e mais completo site de cifras e tablaturas do Brasil
Mais de 1 milhão de acordes de músicas cadastradas desde 2003
As informações contidas no nosso site são colaborações de seus usuários e podem conter erros, sendo assim, não nos responsabilizamos sobre nenhuma destas.
close
menos
mais
close
Cor dos acordes:

Cor da letra:

 

save
close
close
 
redimensionar