Cifras e Tablaturas
Half Moon Run

Half Moon Run

Devil May Care

Cifras Cancelar Versão de Impressão
cifras

Half Moon Run - Devil May Care

fixar na tela  
Exibindo: vídeo-aula ver clipes redimensionar
   
Capo 3 

Verse 
e|-4-2-2-0-0-| 
B|-5-4-2-0-2-| 
G|-6-4-2-1-2-| 
D|-6-4-4-2-2-| 
A|-4-2-4-2-0-| 
E|-4-2-2-0-0-| 

You was always saying that the devil may care.... 
e|----------------------|-----------------------|--------------------------|------------------------| 
B|----5----5-----4----4-|-----0---------2-----2-|-----2------2-----4-----4-|-----0----------2-----2-| 
G|---6----6-----4----4--|----1---------2-----2--|----2------2-----4-----4--|----1----------2-----2--| 
D|--6----6-----4----4---|---2---------2----2----|---4------4-----4-----4---|---2----------2-----2---| 
A|-4----------2---------|-----------0-----------|---------4-----2----------|-------------0----------| 
E|------4----------2----|-0-----2-4-------0-----|--2------------------2----|-0-------2-4-------0----| 


e|----------------------|--------------------0---------0-| 
B|-----2----2----4----4-|----2----2----0----0----0----0--| 
G|----2----2----4----4--|---2----2-----1---1-----1---1---|  repeat x1 
D|---4----4----4----4---|--2----2------------------------| 
A|-------4----2----2----|-0----0-------------------------| 
E|-2--------------------|------------0----0----0---0-----| 



Chorus 
e|-0-0-2-4-2-0-| 
B|-2-0-4-5-4-2-| 
G|-2-1-4-6-4-2-| 
D|-2-2-4-6-4-2-| 
A|-0-2-2-4-2-0-| 
E|-0-0-2-4-2-0-| 

Ooh you like to get to where you can't turn back... 
e|----------|-------------------------|-----------------------|-----------------------| 
B|--2-2-2-2-|---0------0----4------4--|---5------5----4-----4-|---2-----2----2-----2--|    repeat x1 
G|--2-2-2-2-|---1-----1-----4-----4---|---6-----6-----4----4--|---2----2-----2----2---|   
D|----------|-------2------------4----|--------6----?------4---|-------2----------2----| (but leave out the 
A|-0-0-0-0--|-------------2----2------|-4-----4-----2----2----|-0---0------0---0------|   A chord in the  
E|----------|--0--0-------------------|-----------------------|-----------------------|    beginning) 


Interlude 
e|-0--0-| 
B|-0--2-| 
G|-1--2-| 
D|-2--2-| 
A|-2--0-| 
E|-0--0-| 

e|--------------------|                   |----------0--------0-| 
B|---0-------2-----2--|                   |--0-----0---0-----0?--| 
G|---1-------2----2---|  repeat x 3       |--1----1----1----1---| 
D|--------------2-----|                   |---------------------| 
A|--------0----0------|                   |---------------------| 
E|-0---2-4------------|                   |-0--0------0--0------| 
 
  

top 5 | half moon run
top pop music
Outras músicas do artista letras do(a) Half Moon Run
Top cifras »Top artistas »
Petaxxon Comunicação Online
Cifras.com.br - Melhor e mais completo site de cifras e tablaturas do Brasil
Mais de 1 milhão de acordes de músicas cadastradas desde 2003
As informações contidas no nosso site são colaborações de seus usuários e podem conter erros, sendo assim, não nos responsabilizamos sobre nenhuma destas.
close
menos
mais
close
Cor dos acordes:

Cor da letra:

 

save
close
close
 
redimensionar