Cifras e Tablaturas
Harpa Cristã

Harpa Cristã

1- Chuvas De Graça

Compositor : (J Mc Granaham)

Cifras Cancelar Versão de Impressão

Harpa Cristã - 1- Chuvas De Graça

Tom: Bb

  			


1   |   |   |   |   |   |  |   |   |   |   |   |  |   |   |   |   |   |  
E |----------------------|----------------------|----------------------| 
B |----------------------|-----------1----------|----------------------| 
G |---------0-2-3--------|-2-2-2-2-3---3--------|-0-0-0-3-2-0------3---| 
D |-3-3-3-3----------3---|----------------------|-------------3--------| 
A |----------------------|----------------------|----------------------| 
E |----------------------|----------------------|----------------------| 



4   |   |   |   |   |   |  |   |   |   |   |   |  |   |   |   |   |   |  
E |----------------------|----------------------|----------------------| 
B |----------------------|-3-------2-3----------|-3--------------------| 
G |-3-3-3-3-2-3-5--------|-------------3--------|---5-3-3-2-3-5--------| 
D |----------------------|------------------3---|----------------------| 
A |----------------------|----------------------|----------------------| 
E |----------------------|----------------------|----------------------| 



7   |   |   |   |   |   |  |   |   |   |   |   |  |   |   |   |   |   |  
E |----------------------|----------------------|----------------------| 
B |-3-3-3----------------|-----------1----------|----------------------| 
G |-------5-3--------3---|-2-2-2-2-3---3--------|---------0-2-3--------| 
D |-----------5-3--------|----------------------|-3-3-3-3----------3---| 
A |----------------------|----------------------|----------------------| 
E |----------------------|----------------------|----------------------| 



10  |   |   |   |   |   |  |   |   |   |   |   |  |   |   |   |   |   |  
E |----------------------|----------------------|----------------------| 
B |-----------1----------|----------------------|----------------------| 
G |-2-2-2-2-3---3--------|-0-0-0-3-2-0------3---|-3-3-3-3-2-3-5--------| 
D |----------------------|-------------3--------|----------------------| 
A |----------------------|----------------------|----------------------| 
E |----------------------|----------------------|----------------------| 



13  |   |   |   |   |   |  |   |   |   |   |   |  |   |   |   |   |   |  
E |----------------------|----------------------|----------------------| 
B |-3-------2-3----------|-3--------------------|-3-3-3----------------| 
G |-------------3--------|---5-3-3-2-3-5--------|-------5-3--------3---| 
D |------------------3---|----------------------|-----------5-3--------| 
A |----------------------|----------------------|----------------------| 
E |----------------------|----------------------|----------------------| 



16  |   |   |   |   |   |  |   |   |   |   |   |  |   |   |   |   |   |  
E |----------------------|----------------------|----------------------| 
B |-----------1----------|----------------------|-----------1----------| 
G |-2-2-2-2-3---3--------|---------0-2-3--------|-2-2-2-2-3---3--------| 
D |----------------------|-3-3-3-3----------3---|----------------------| 
A |----------------------|----------------------|----------------------| 
E |----------------------|----------------------|----------------------| 



19  |   |   |   |   |   |  |   |   |   |   |   |  |   |   |   |   |   |  
E |----------------------|----------------------|----------------------| 
B |----------------------|----------------------|-3-------2-3----------| 
G |-0-0-0-3-2-0------3---|-3-3-3-3-2-3-5--------|-------------3--------| 
D |-------------3--------|----------------------|------------------3---| 
A |----------------------|----------------------|----------------------| 
E |----------------------|----------------------|----------------------| 



22  |   |   |   |   |   |  |   |   |   |   |   |  |   |   |   |   |   |  
E |----------------------|----------------------|----------------------| 
B |-3--------------------|-3-3-3----------------|-----------1----------| 
G |---5-3-3-2-3-5--------|-------5-3--------3---|-2-2-2-2-3---3--------| 
D |----------------------|-----------5-3--------|----------------------| 
A |----------------------|----------------------|----------------------| 
E |----------------------|----------------------|----------------------| 



25  |   |   |   |   |   |  |   |   |   |   |   |  |   |   |   |   |   |  
E |----------------------|----------------------|----------------------| 
B |----------------------|-----------1----------|----------------------| 
G |---------0-2-3--------|-2-2-2-2-3---3--------|-0-0-0-3-2-0------3---| 
D |-3-3-3-3----------3---|----------------------|-------------3--------| 
A |----------------------|----------------------|----------------------| 
E |----------------------|----------------------|----------------------| 



28  |   |   |   |   |   |  |   |   |   |   |   |  |   |   |   |   |   |  
E |----------------------|----------------------|----------------------| 
B |----------------------|-3-------2-3----------|-3--------------------| 
G |-3-3-3-3-2-3-5--------|-------------3--------|---5-3-3-2-3-5--------| 
D |----------------------|------------------3---|----------------------| 
A |----------------------|----------------------|----------------------| 
E |----------------------|----------------------|----------------------| 



31  |   |   |   |   |   |  |   |   |   |   |   |  |   |   |   |   |   |  
E |----------------------|----------------------|----------------------| 
B |-3-3-3----------------|-----------1----------|----------------------| 
G |-------5-3--------3---|-2-2-2-2-3---3--------|----------------------| 
D |-----------5-3--------|----------------------|----------------------| 
A |----------------------|----------------------|----------------------| 
E |----------------------|----------------------|----------------------| 
    	
fixar
fixar inscrever-se

enviado porenviado por: HELON
cifra enviadaCorrigida por: sem correções
logo top cifrasComente
ico música do artistaMúsicas deste artista
ico curtiuCurtiu?
ico destaqueDestaque
Petaxxon Comunicação Online

Cifras.com.br - Melhor e mais completo site de cifras e tablaturas do Brasil Mais de 1 milhão de acordes de músicas cadastradas desde 2003
As informações contidas no nosso site são colaborações de seus usuários e podem conter erros, sendo assim, não nos responsabilizamos sobre nenhuma destas.

close
menos
mais
close
Cor dos acordes:

Cor da letra:

close
Alinhar acordes a direita Alinhar acordes a esquerda Alinhar acordes em baixo Alinhar acordes no topo
close
  Mostrar todos os acordes Esconder acordes muito fáceis Esconder acordes fáceis Esconder acordes intermediários
redimensionar
glossário