Cifras e Tablaturas
Hateen

Hateen

Mr Oldman

Cifras Cancelar Versão de Impressão Print

Hateen - Mr Oldman

Tom:

  			 
intro gtr 1 
(bass and guitar) 
e---------------------------- 
B-----0------0--------------- 
G--------------------2------- 
D--4-----4------4------------ 
A---------------------------- 
E----------------------------(listen to find out how many times) 
 
and then.. 
e------------------ 
B------------------ 
G------------------ 
D--9---7---5------- 
A--9---7---5------- 
E--7---5---3------- 
 
 
base gtr 1 
"mr. oldman.. is ready to pass away.." 
e---------------------------- 
B-----0------0--------------- 
G--------------------2------- 
D--4-----4------4------------ 
A---------------------------- 
E---------------------------- 
 
and then.. 
"it's not so easy to forget!!" 
e------------------ 
B------------------ 
G------------------ 
D--9---7---5------- 
A--9---7---5------- 
E--7---5---3------- 
 
 
"it wasn't always like this... now he's going.." 
e---------------- 
B---------------- 
G--------4--2---- 
D--2--5--4--2---- 
A--2--5--2--0---- 
E--0--3---------- 
 
 
"life changes.. easier than you think..." 
e--------------------- 
B--------------------- 
G--4---6---7---------- 
D--4---6---7--7--5---- 
A--2---4---5--7--5---- 
E-(-PM-)------5--3---- 
 
(after this, back to the base, play all again.. then it goes to the end.) 
 
 
end gtr 1 
e------------ 
B------------ 
G------------ 
D--9--7--5--- 
A--9--7--5--- 
E--7--5--3--- 
 
 
gtr 2 
intro 
e-------------------------------------- 
B-------------------------------------- 
G--2>4-6-7-6-4-2-2>444444444--4-467---- 
D-------------------------------------- 
A-------------------------------------- 
E-------------------------------------- 
 
e--------------------------------------------------------------------------------------- 
B--------------------------------------------------------------------------------------- 
G--6-4-6-7-6-4-6-7-6-4-6-7-6-4-6-7-6-4-6-7-6-4-6-7-6-4-6-7-6-4-2-4-2-2>4-4>6-7-7-6>9-11- 
D--------------------------------------------------------------------------------------- 
A--------------------------------------------------------------------------------------- 
E--------------------------------------------------------------------------------------- 
 
 
base gtr 2  
(gtr 2 does not plays this part) 
"mr. oldman.. is ready to pass away.." 
 
 
"it's not so easy to forget!!" 
e------------------ 
B------------------ 
G------------------ 
D--9x--7x--5x------ 
A--9x--7x--5x------ 
E--7x--5x--3x------ 
 
 
"it wasn't always like this... now he's going.." 
e--------------------------- 
B--------------------------- 
G--4----12----11----12--9--- 
D--------------------------- 
A--2----10----9-----10--7--- 
E--------------------------- 
 
 
"life changes.. easier than you think..." 
e---------/------------ 
B---------/------------ 
G--4---6--/-7---------- 
D--4---6--/-7--7--5---- 
A--2---4--/-5--7--5---- 
E-(GTR 1)-/----5--3---- 
 
 
"...and i was left behind... just like mr. oldman" 
e-------------------------------------------------------- 
B-------------------------------------------------------- 
G-------------------------------------------------------- 
D-------------------------------------------------------- 
A--5-5-55-5>7-77-77-7>9>10-10----5--5--55-7-9--7-9-10---- 
E-------------------------------------------------------- 
 
 
base gtr 2  
(gtr 2 does not plays this part) 
"mr. oldman.. is ready to pass away.." 
 
 
"it's not so easy to forget!!" 
e----------------------------------------------------------------------------------- 
B----------------------------------------------------------------------------------- 
G----------------------------------------------------------------------------------- 
D--9--7--5----9--7--5--------------------------------------------------------------- 
A--9--7--5----9--7--5---7-77777---2-22222---7-77777---2-22222---9-10-9-999---22222-- 
E--7--5--3----7--5--3--------------------------------------------------------------- 
 
 
"it wasn't aways like this... now he's going.." 
e------------------------------------------------------------------- 
B------------------------------------------------------------------- 
G------------------------------------------------------------------- 
D------------------------------------------------------------------- 
A--9-7-9-10-9-8-7-9-10-9-10-12-10-9-7-10-9-10>9>10>9>10>9>10>9-12--- 
E------------------------------------------------------------------- 
 
e------------------------------------------------------------------------- 
B------------------------------------------------------------------------- 
G------------------------------------------------------------------------- 
D------------------------------------------------------------------------- 
A--12-14-16-16-16-16-17-16-14-12-14-14-14-14-17-17-17-17-16-16-16-16-16--- 
E------------------------------------------------------------------------- 
 
 
"life changes.. easier than you think..." 
e---------/------------ 
B---------/------------ 
G--4---6--/-7---------- 
D--4---6--/-7--7--5---- 
A--2---4--/-5--7--5---- 
E-(GTR 1)-/----5--3---- 
 
 
(solo - it's not 100% accurate but doing something like that sounds ok.) 
"...and i was left behind... just like mr. oldman" 
e-------------------------------------------------------- 
B-------------------------------------------------------- 
G-------------------------------------------------------- 
D-------------------------------------------------------- 
A--5-5-55-5>7-77-77-7>9>10-10----5--5--55-7-9--7-9-10---- 
E-------------------------------------------------------- 
 
e------------------------------------------------------------------- 
B--7-7-8-7-7-8-7-7-8-7-7-8-7-7-10--7-7-8-7-7-8-7-7-8-7-7-8-7-7-10--- 
G------------------------------------------------------------------- 
D------------------------------------------------------------------- 
A------------------------------------------------------------------- 
E------------------------------------------------------------------- 
 
e------------------------------------------------------------------- 
B--7-7-8-7-7-8-7-7-8-7-7-8-7-7-10--7-7-8-7-7-8-7-7-8-7-7-8-7-7-10--- 
G------------------------------------------------------------------- 
D------------------------------------------------------------------- 
A------------------------------------------------------------------- 
E------------------------------------------------------------------- 
 
e------------------------------------------------------------------- 
B--7-7-8-7-7-8-7-7-8-7-7-8-7-7-10--7-7-8-7-7-8-7-7-8-7-7-8-7-7-10--- 
G------------------------------------------------------------------- 
D------------------------------------------------------------------- 
A------------------------------------------------------------------- 
E------------------------------------------------------------------- 
 
e---------------------------------- 
B--10-10-10-8-7-10-10-10-8-7-8-8--- 
G---------------------------------- 
D---------------------------------- 
A---------------------------------- 
E----------------------------------   
 
 
_______________________________________________________ 
Contribuição: Rodrigo Dutra([email protected]) 

    	
fixar
fixar inscrever-se

enviado porenviado por: anônimo
cifra enviadaCorrigida por: sem correções
logo top cifrasComente
ico música do artistaMúsicas deste artista
ico curtiuCurtiu?
ico destaqueDestaque
Petaxxon Comunicação Online

Cifras.com.br - Melhor e mais completo site de cifras e tablaturas do Brasil Mais de 1 milhão de acordes de músicas cadastradas desde 2003
As informações contidas no nosso site são colaborações de seus usuários e podem conter erros, sendo assim, não nos responsabilizamos sobre nenhuma destas.

close
menos
mais
close
Cor dos acordes:

Cor da letra:

close
Alinhar acordes a direita Alinhar acordes a esquerda Alinhar acordes em baixo Alinhar acordes no topo
close
  Mostrar todos os acordes Esconder acordes muito fáceis Esconder acordes fáceis Esconder acordes intermediários
redimensionar
glossário