Cifras e Tablaturas
Have A Nice Life

Have A Nice Life

The Big Gloom

Cifras Cancelar Versão de Impressão
cifras

Have A Nice Life - The Big Gloom

fixar na tela  
Exibindo: vídeo-aula ver clipes redimensionar

Tom:

  
Intro 

E|--------------------------------------| 
B|--------------------------------------| 
G|--------------------------------------| 
D|--0----0----2----2----5----2----2-----| 
A|--2----2----3----5----7----2----3-----| 
E|--3----0----0----0----0----0----0-----| 

Sleeping in and out... 
E|-----------------------------------------------------------------------------------------| 
B|-----------------------------------------------------------------------------------------| 
G|-----------------------------------------------------------------------------------------| 
D|--0--0--0----2--2--2--2----2----2--2--2--2-----5------2--2--2--2------2------2--2--2--2--| 
A|--2--2--2----3--2--0--2----3----3--2--0--2-----7------3--2--0--2------3------3--2--0--2--| 
E|--3--5--7----0--0--0--0----3----0--0--0--0-----0------0--0--0--0------3------0--0--0--0--| 

So please please please release me... 
E|-------------------------------------------------| 
B|-------------------------------------------------| 
G|-------------------------------------------------| 
D|--0-----2--2--2--2-------0------2--2--2--2-------| 
A|--2-----3--2--0--2-------2------3--2--0--2-------| 
E|--3-----0--0--0--0-------3------0--0--0--0-------| 


Bridge 

E|------------------------------------| 
B|------------------------------------| 
G|------------------------------------| 
D|------------------------------------| 
A|-----7--5-----5--3--------2--3------| 
E|--3--------3--------3--3--------3---| 



can you hear my faintest breath... 
E|--0-----3-----0--| 
B|--0-----3-----1--| 
G|--0-----0-----0--| 
D|--1-----0-----2--| 
A|--1-----2-----3--| 
E|--0-----3-----3--| 

I'm trapped, I'm stuck here... 
E|--0-----0-----0--| 
B|--0-----0-----0--| 
G|--0-----0-----0--| 
D|--0-----7-----2--| 
A|--1-----7-----3--| 
E|--0-----5-----3--| 

Just open your eyes, your dead ones... 
E|--0-----0-----0--| 
B|--0-----0-----0--| 
G|--0-----0-----0--| 
D|--2-----7-----2--| 
A|--2-----7-----3--| 
E|--0-----5-----3--| 


Outro 

E|--------------7--7--7--7--7--| 
B|-----------------------------| 
G|-----------------------------| 
D|-----------------------------| 
A|-----------------------------| 
E|--3--5--7--0-----------------| 
  

top 5 | have a nice life
top rock alternativo
Outras músicas do artista letras do(a) Have A Nice Life
Top cifras »Top artistas »
Petaxxon Comunicação Online
Cifras.com.br - Melhor e mais completo site de cifras e tablaturas do Brasil
Mais de 1 milhão de acordes de músicas cadastradas desde 2003
As informações contidas no nosso site são colaborações de seus usuários e podem conter erros, sendo assim, não nos responsabilizamos sobre nenhuma destas.
close
menos
mais
close
Cor dos acordes:

Cor da letra:

 

save
close
close
 
redimensionar