Cifras e Tablaturas
Havok

Havok

Killing Tendencies

Cifras Cancelar Versão de Impressão
cifras

Havok - Killing Tendencies

fixar na tela  
Exibindo: vídeo-aula ver clipes redimensionar

Tom:

  
Intro, 0:00 
3/4 (6/8) dotted half note = 108 bpm (dotted quarter = 108 if thinking in 6/8) 

E|-------------------------------------------------------------------------------------------------| 
B|-------------------------------------------------------------------------------------------------|   
G|-------------------------------------------------------------------------------------------------| 
D|--2-----------8\--5-----------2-------6-------1/--2-----------8\--5-----------2-------6-------6--| 
A|--2-----------8\--5-----------2-------6-------1/--2-----------8\--5-----------2-------6-------6--|\ 
E|-\0---0---0-----------0---0-------0-------0-----------0---0-----------0---0-------0--------------| \ 
                                                                                                      2x  
E|-------------------------------------------------------------------------------------------------| / 
B|-------------------------------------------------------------------------------------------------|/ 
G|-------------------------------------------------------------------------------------------------| 
D|-\2-----------8\--5-----------2-------6-------1/--2-----------8\--5-----------3-------4-------5--| 
A|-\2-----------8\--5-----------2-------6-------1/--2-----------8\--5-----------3-------4-------5--| 
E|-\0---0---0-----------0---0-------0-------0-----------0---0-----------0---0----------------------| 

~0:18 

E|-------------------------------------------------------------------------------------------------| 
B|-------------------------------------------------------------------------------------------------| 
G|-------------------------------------------------------------------------------------------------| 
D|-2----------------------(2)---------------------(2)---------------------(2)----------------------| 
A|-2----------------------(2)---------------------(2)---------------------(2)----------------------|\ 
E|-0----------------------(0)---------------------(0)---------------------(0)----------------------| \ 
                                                                                                      2x 
E|-------------------------------------------------------------------------------------------------| / 
B|-------------------------------------------------------------------------------------------------|/ 
G|-------------------------------------------------------------------------------------------------| 
D|-2-----------------------------------------------------------------------------------------------| 
A|-2-----------------------------------------------------------------------------------------------| 
E|-0-------0-------0-------0-------0-------0-------0-------0-------0-------0-------0-------0-------| 

Lead Guitar Harmony over rhythm 
E|-------------------------------------------------------------------------------------------------| 
B|-8-----------------------------------------------------------------------------------------------| 
G|-9-----------------------------------------------------------------------------------------------| 
D|(2)---------------------(2)---------------------(2)---------------------(2)----------------------| 
A|(2)---------------------(2)---------------------(2)---------------------(2)----------------------| 
E|(0)---------------------(0)---------------------(0)---------------------(0)----------------------|  
                                                                                                       
E|-------------------------------------------------------------------------------------------------|  
B|-------------------------------------------------------------------------------------------------| 
G|-------------------------------------------------------------------------------------------------| 
D|-2-----------------------------------------------------------------------------------------------| 
A|-2-----------------------------------------------------------------------------------------------| 
E|-0-------0-------0-------0-------0-------0-------0-------0-------0-------0-------0-------0-------| 

E|-------------------------------------------------------------------------------------------------| 
B|-5-----------------------------------------------------------------------------------------------| 
G|-5-----------------------------------------------------------------------------------------------| 
D|(2)---------------------(2)---------------------(2)---------------------(2)----------------------| 
A|(2)---------------------(2)---------------------(2)---------------------(2)----------------------| 
E|(0)---------------------(0)---------------------(0)---------------------(0)----------------------|  
                                                                                                       
E|-------------------------------------------------------------------------------------------------|  
B|-------------------------------------------------------------------------------------------------| 
G|-------------------------------------------------------------------------------------------------| 
D|-2-----------------------------------------------------------------------------------------------| 
A|-2-----------------------------------------------------------------------------------------------| 
E|-0-------0-------0-------0-------0-------0-------0-------0-------0-------0-----------------------| 

Main Riff, 4/4 tempo now quarter note 162 Bpm, ~0:36            
E|----------------------------------------------------------------|\ 
B|----------------------------------------------------------------| \ 
G|----------------------------------------------------------------|  \ 
D|-2-----------8\--5-----------2-------3-------6-------6---1------|  4x 
A|-2-----------8\--5-----------2-------3-------6-------6---1------| / 
E|-0---0---0-----------0---0-------0-------0----------------------|/ 

"Creeping in like rolling THUUUNDER!!!" ~0:47         
E|----------------------------------------------------------------|  
B|----------------------------------------------------------------| 
G|----------------------------------------------------------------| 
D|-2------------------------------(2)-----------------------------| 
A|-2------------------------------(2)-----------------------------| 
E|-0------------------------------(0)-----------------------------| 
         
E|----------------------------------------------------------------| 
B|----------------------------------------------------------------| 
G|----------------------------------------------------------------|   
D|-2-----------8\--5-----------2-------3-------6-------6---1------|   
A|-2-----------8\--5-----------2-------3-------6-------6---1------|  
E|-0---0---0-----------0---0-------0-------0----------------------| 
   
E|----------------------------------------------------------------|  
B|-8--------------------------------------------------------------| 
G|-9--------------------------------------------------------------| 
D|(2)-----------------------------(2)-----------------------------| 
A|(2)-----------------------------(2)-----------------------------| 
E|(0)-----------------------------(0)-----------------------------| 
        
E|----------------------------------------------------------------| 
B|----------------------------------------------------------------| 
G|----------------------------------------------------------------|   
D|-2-----------8\--5-----------2-------3-------6-------6---1------|   
A|-2-----------8\--5-----------2-------3-------6-------6---1------|  
E|-0---0---0-----------0---0-------0-------0----------------------| 

~0:59 
    
E|----------------------------------------------------------------|  
B|----------------------------------------------------------------| 
G|----------------------------------------------------------------| 
D|-3--------------------------------------------------------------| 
A|-3-------------------------------------------------------4---4--| 
E|-1---1---1---1---1---1---1---1---1---1---1---1---1---1---2---2--| 

            
E|----------------------------------------------------------------|  
B|----------------------------------------------------------------| 
G|----------------------------------------------------------------| 
D|-3-------------------------------6---------------4--------------| 
A|-3-------------------------------6---------------4--------------| 
E|-1---1---1---1---1---1---1---1---4---------------2--------------| 
   
E|----------------------------------------------------------------|\ 
B|----------------------------------------------------------------| \ 
G|----------------------------------------------------------------|  \   
D|-2-----------8\--5-----------2-------3-------6-------6---1------|  2x 
A|-2-----------8\--5-----------2-------3-------6-------6---1------| / 
E|-0---0---0-----------0---0-------0-------0----------------------|/ 

Chorus ~1:11 
            
E|----------------------------------------------------------------| 
B|----------------------------------------------------------------| 
G|---------------------------------------------2--(2)-------------|  
D|-2-----------5--(5)--3---2---3--(3)------------------5---3---2--|\ 
A|-0--------------------------------------------------------------| \ 
E|-0---0---0---------------------------0---0----------------------|  \ 
                                                                      \ 
                                                                       2x 
E|----------------------------------------------------------------|   / 
B|----------------------------------------------------------------|  / 
G|----------------------------------------------------------------| / 
D|(2)-----------5-(5)--3---2-----------2---3----------------------|/ 
A|-----------------------------5--(5)----------1--(1)--0----------| 
E|-----0---0-----------------------------------------------3---0--| 
        
E|----------------------------------------------------------------|\ 
B|----------------------------------------------------------------| \ 
G|----------------------------------------------------------------|  \ 
D|-2-----------8\--5-----------2-------3-------6-------6---1------|  4x 
A|-2-----------8\--5-----------2-------3-------6-------6---1------| / 
E|-0---0---0-----------0---0-------0-------0----------------------|/ 

"Look out, this things about to explode!!!" ~1:35 
            
E|----------------------------------------------------------------|  
B|----------------------------------------------------------------| 
G|----------------------------------------------------------------| 
D|-2------------------------------(2)-----------------------------| 
A|-2------------------------------(2)-----------------------------| 
E|-0------------------------------(0)-----------------------------| 
         
E|----------------------------------------------------------------| 
B|----------------------------------------------------------------| 
G|----------------------------------------------------------------|   
D|-2-----------8\--5-----------2-------3-------6-------6---1------|   
A|-2-----------8\--5-----------2-------3-------6-------6---1------|  
E|-0---0---0-----------0---0-------0-------0----------------------| 
        
E|----------------------------------------------------------------|  
B|-8--------------------------------------------------------------| 
G|-9--------------------------------------------------------------| 
D|(2)-----------------------------(2)-----------------------------| 
A|(2)-----------------------------(2)-----------------------------| 
E|(0)-----------------------------(0)-----------------------------| 
            
E|----------------------------------------------------------------| 
B|----------------------------------------------------------------| 
G|----------------------------------------------------------------|   
D|-2-----------8\--5-----------2-------3-------6-------6---1------|   
A|-2-----------8\--5-----------2-------3-------6-------6---1------|  
E|-0---0---0-----------0---0-------0-------0----------------------| 

~1:46 
            
E|----------------------------------------------------------------|  
B|----------------------------------------------------------------| 
G|----------------------------------------------------------------| 
D|-3--------------------------------------------------------------| 
A|-3-------------------------------------------------------4---4--| 
E|-1---1---1---1---1---1---1---1---1---1---1---1---1---1---2---2--| 
          
E|----------------------------------------------------------------|  
B|----------------------------------------------------------------| 
G|----------------------------------------------------------------| 
D|-3-------------------------------6---------------4--------------| 
A|-3-------------------------------6---------------4--------------| 
E|-1---1---1---1---1---1---1---1---4---------------2--------------| 
         
E|----------------------------------------------------------------|\ 
B|----------------------------------------------------------------| \ 
G|----------------------------------------------------------------|  \   
D|-2-----------8\--5-----------2-------3-------6-------6---1------|  2x 
A|-2-----------8\--5-----------2-------3-------6-------6---1------| / 
E|-0---0---0-----------0---0-------0-------0----------------------|/ 

Chorus ~1:57, third and fourth repeat with lead harmony 
            
E|----------------------------------------------------------------| 
B|----------------------------------------------------------------| 
G|---------------------------------------------2--(2)-------------|  
D|-2-----------5--(5)--3---2---3--(3)------------------5---3---2--|\ 
A|-0--------------------------------------------------------------| \ 
E|-0---0---0---------------------------0---0----------------------|  \ 
                                                                      \ 
                                                                       4x 
E|----------------------------------------------------------------|   / 
B|----------------------------------------------------------------|  / 
G|----------------------------------------------------------------| / 
D|(2)-----------5-(5)--3---2-----------2---3----------------------|/ 
A|-----------------------------5--(5)----------1--(1)--0----------| 
E|-----0---0-----------------------------------------------3---0--| 

~2:21 
            
E|----------------------------------------------------------------|  
B|----------------------------------------------------------------| 
G|----------------------------------------------------------------| 
D|-2--(2)---------------------------------------------------------| 
A|-2--(2)---------------------------------------------------------| 
E|-0--(0)--0---0---0---0---0--/10-(10)-0---0---0---0---0---0--/9--| 
          
E|----------------------------------------------------------------|  
B|----------------------------------------------------------------| 
G|----------------------------------------------------------------| 
D|-------------------------------------------------------------2--| 
A|---------------------------------------------------------5---2--| 
E|(9)--0---0---0---0---0---0-/8---(8)--0---0---0---0---0---3---0--| 
        
E|----------------------------------------------------------------|  
B|----------------------------------------------------------------| 
G|----------------------------------------------------------------| 
D|(2)-------------------------------------------------------------| 
A|(2)-------------------------------------------------------------| 
E|(0)--0---0---0---0---0---0--/10-(10)-0---0---0---0---0---0--/9--| 
      
E|----------------------------------------------------------------|  
B|----------------------------------------------------------------| 
G|----------------------------------------------------------------| 
D|-------------------------------------------------------------2--| 
A|---------------------------------------------------------5---2--| 
E|(9)--0---0---0---0---0---0-/8---(8)--0---0---0---0---0---3---0--| 
   
E|----------------------------------------------------------------|  
B|----------------------------------------------------------------| 
G|----------------------------------------------------------------| 
D|(2)--------------------------8-------------------------------7--| 
A|(2)-------------------------------------------------------------| 
E|(0)--0---0---0---0---0---0--/10-(10)-0---0---0---0---0---0--/9--| 
      
E|----------------------------------------------------------------|  
B|----------------------------------------------------------------| 
G|----------------------------------------------------------------| 
D|----------------------------6--------------------------------2--| 
A|---------------------------------------------------------5---2--| 
E|(9)--0---0---0---0---0---0-/8---(8)--0---0---0---0---0---3---0--| 

E|----------------------------------------------------------------|  
B|----------------------------------------------------------------| 
G|----------------------------------------------------------------| 
D|(2)-------------------------------------------------------------| 
A|(2)-------------------------------------------------------------| 
E|(0)--0---0---0---0---0---0--/10-(10)-0---0---0---0---0---0--/9--| 
            
E|----------------------------------------------------------------|  
B|----------------------------------------------------------------| 
G|----------------------------------------------------------------| 
D|----------------------------------------------------------------| 
A|---------------------------------------------------------5--(5)-| 
E|(9)--0---0---0---0---0---0-/8---(8)--0---0---0---0---0---3--(3)-| 

Start Solos, Rhythm doing 16th note tremolo stuff, ~2:44 
            
E|----------------------------------------------------------------|  
B|---------------------------------10-----------------------------| 
G|-9-----------11----------12------------------12----------11-----| 
D|----------------------------------------------------------------| 
A|----------------------------------------------------------------| \ 
E|----------------------------------------------------------------|  \ 
                                                                      \ 
E|---------------------------------10-----------------------------|    \ 
B|---------------------------------------------13----------12-----|     \ 
G|-9-----------11----------12-------------------------------------|      \ 
D|----------------------------------------------------------------|       \ 
A|----------------------------------------------------------------|        \ 
E|----------------------------------------------------------------|         \ 
                                                                             \ 
                                                                            2x 
E|----------------------------------------------------------------|         / 
B|---------------------------------10-----------------------------|        / 
G|-9-----------11----------12------------------12----------11-----|       / 
D|----------------------------------------------------------------|      / 
A|----------------------------------------------------------------|     / 
E|----------------------------------------------------------------|    / 
                                                                      / 
E|----------------------------------------------------------------|  / 
B|----------------------------------------------------------------| / 
G|-9-----------11----------12------8------------------------------| 
D|----------------------------------------------------------------| 
A|----------------------------------------------------------------| 
E|----------------------------------------------------------------| 

Crazy solo stuff ~3:07, not going to tab out, too fast, hopefully someone with a little more skill can pick up 
my slack. 
Back into verse at ~3:30 
            
E|----------------------------------------------------------------|  
B|----------------------------------------------------------------| 
G|----------------------------------------------------------------| 
D|-2------------------------------(2)-----------------------------| 
A|-2------------------------------(2)-----------------------------| 
E|-0------------------------------(0)-----------------------------| 
            
E|----------------------------------------------------------------| 
B|----------------------------------------------------------------| 
G|----------------------------------------------------------------|   
D|-2-----------8\--5-----------2-------3-------6-------6---1------|   
A|-2-----------8\--5-----------2-------3-------6-------6---1------|  
E|-0---0---0-----------0---0-------0-------0----------------------| 
            
E|----------------------------------------------------------------|  
B|-8--------------------------------------------------------------| 
G|-9--------------------------------------------------------------| 
D|(2)-----------------------------(2)-----------------------------| 
A|(2)-----------------------------(2)-----------------------------| 
E|(0)-----------------------------(0)-----------------------------| 
           
E|----------------------------------------------------------------| 
B|----------------------------------------------------------------| 
G|----------------------------------------------------------------|   
D|-2-----------8\--5-----------2-------3-------6-------6---1------|   
A|-2-----------8\--5-----------2-------3-------6-------6---1------|  
E|-0---0---0-----------0---0-------0-------0----------------------| 

~3:42 
            
E|----------------------------------------------------------------|  
B|----------------------------------------------------------------| 
G|----------------------------------------------------------------| 
D|-3--------------------------------------------------------------| 
A|-3-------------------------------------------------------4---4--| 
E|-1---1---1---1---1---1---1---1---1---1---1---1---1---1---2---2--| 
       
E|----------------------------------------------------------------|  
B|----------------------------------------------------------------| 
G|----------------------------------------------------------------| 
D|-3-------------------------------6---------------4--------------| 
A|-3-------------------------------6---------------4--------------| 
E|-1---1---1---1---1---1---1---1---4---------------2--------------| 

E|----------------------------------------------------------------|\ 
B|----------------------------------------------------------------| \ 
G|----------------------------------------------------------------|  \   
D|-2-----------8\--5-----------2-------3-------6-------6---1------|  2x 
A|-2-----------8\--5-----------2-------3-------6-------6---1------| / 
E|-0---0---0-----------0---0-------0-------0----------------------|/ 

Chorus ~3:53, third and fourth repeat with lead harmony 
            
E|----------------------------------------------------------------| 
B|----------------------------------------------------------------| 
G|---------------------------------------------2--(2)-------------|  
D|-2-----------5--(5)--3---2---3--(3)------------------5---3---2--|\ 
A|-0--------------------------------------------------------------| \ 
E|-0---0---0---------------------------0---0----------------------|  \ 
                                                                      \ 
                                                                      4x 
E|----------------------------------------------------------------|   / 
B|----------------------------------------------------------------|  / 
G|----------------------------------------------------------------| / 
D|(2)-----------5-(5)--3---2-----------2---3----------------------|/ 
A|-----------------------------5--(5)----------1--(1)--0----------| 
E|-----0---0-----------------------------------------------3---0--| 

~4:17 
            
E|----------------------------------------------------------------|  
B|----------------------------------------------------------------| 
G|----------------------------------------------------------------| 
D|-2--(2)---------------------------------------------------------| 
A|-2--(2)---------------------------------------------------------| 
E|-0--(0)--0---0---0---0---0--/10-(10)-0---0---0---0---0---0--/9--| 

            
E|----------------------------------------------------------------|  
B|----------------------------------------------------------------| 
G|----------------------------------------------------------------| 
D|-------------------------------------------------------------2--| 
A|---------------------------------------------------------5---2--| 
E|(9)--0---0---0---0---0---0-/8---(8)--0---0---0---0---0---3---0--| 

            
E|----------------------------------------------------------------|  
B|----------------------------------------------------------------| 
G|----------------------------------------------------------------| 
D|(2)-------------------------------------------------------------| 
A|(2)-------------------------------------------------------------| 
E|(0)--0---0---0---0---0---0--/10-(10)-0---0---0---0---0---0--/9--| 

            
E|----------------------------------------------------------------|  
B|----------------------------------------------------------------| 
G|----------------------------------------------------------------| 
D|-------------------------------------------------------------2--| 
A|---------------------------------------------------------5---2--| 
E|(9)--0---0---0---0---0---0-/8---(8)--0---0---0---0---0---3---0--| 

            
E|----------------------------------------------------------------|  
B|----------------------------------------------------------------| 
G|----------------------------------------------------------------| 
D|(2)--------------------------8-------------------------------7--| 
A|(2)-------------------------------------------------------------| 
E|(0)--0---0---0---0---0---0--/10-(10)-0---0---0---0---0---0--/9--| 

            
E|----------------------------------------------------------------|  
B|----------------------------------------------------------------| 
G|----------------------------------------------------------------| 
D|----------------------------6--------------------------------2--| 
A|---------------------------------------------------------5---2--| 
E|(9)--0---0---0---0---0---0-/8---(8)--0---0---0---0---0---3---0--| 

            
E|----------------------------------------------------------------|  
B|----------------------------------------------------------------| 
G|----------------------------------------------------------------| 
D|(2)-------------------------------------------------------------| 
A|(2)-------------------------------------------------------------| 
E|(0)--0---0---0---0---0---0--/10-(10)-0---0---0---0---0---0--/9--| 

            
E|----------------------------------------------------------------|  
B|----------------------------------------------------------------| 
G|----------------------------------------------------------------| 
D|----------------------------------------------------------------| 
A|-----------------------------------------------------5b---------| 
E|(9)--0---0---0---0---0---0-/8---(8)--0---0---0---0---3b---------| 
  

top 5 | havok
top rock'n roll
Outras músicas do artista letras do(a) Havok
Top cifras »Top artistas »
Petaxxon Comunicação Online
Cifras.com.br - Melhor e mais completo site de cifras e tablaturas do Brasil
Mais de 1 milhão de acordes de músicas cadastradas desde 2003
As informações contidas no nosso site são colaborações de seus usuários e podem conter erros, sendo assim, não nos responsabilizamos sobre nenhuma destas.
close
menos
mais
close
Cor dos acordes:

Cor da letra:

 

save
close
close
 
redimensionar