Cifras e Tablaturas
Cifras Cancelar Versão de Impressão
cifras

Heart - Barracuda

fixar na tela  
Exibindo: vídeo-aula ver clipes redimensionar
  
Intro: E5 F#5 G5 E5 F#5 G6 (2x) 

e|--------------------------------------------------------------------| 
B|--------------------------------------------------------------------| 
G|--------------------------------------------------------------------| 
D|--------------------------------------------------------------------| 
A|-2--2-2-2--2-2-2--2-2-2--2-2-2--2-2-2--2-2-2--2-2-2--2-2-2--2-2-4-5-| 
E|-0--0-0-0--0-0-0--0-0-0--0-0-0--0-0-0--0-0-0--0-0-0--0-0-0--0-0-2-3-| 

e|-----------------| 
B|-----------------| 
G|-12(hn)--5(hn)~~-| 
D|-12(hn)--5(hn0~~-| 
A|-----------------| 
E|-----------------| 

e|-----------------------------------------------------------------------0-| 
B|-----------------------------------------------------------------------0-| 
G|-----------------------------------------------------------------------0-| 
D|-----------------------------------------------------------------------5-| 
A|-2--2-2-2--2-2-2--2-2-2--2-2-2--2-2-2--2-2-2--2-2-2--2-2-2--2-2-4-5----5-| 
E|-0--0-0-0--0-0-0--0-0-0--0-0-0--0-0-0--0-0-0--0-0-0--0-0-0--0-0-2-3----3-| 

e|--------------------------------------------------------------------| 
B|--------------------------------------------------------------------| 
G|--------------------------------------------------------------------| 
D|--------------------------------------------------------------------| 
A|-2--2-2-2--2-2-2--2-2-2--2-2-2--2-2-2--2-2-2--2-2-2--2-2-2--2-2-4-5-| 
E|-0--0-0-0--0-0-0--0-0-0--0-0-0--0-0-0--0-0-0--0-0-0--0-0-0--0-0-2-3-| 

e|----------| 
B|----------| 
G|-12(hn)---| 
D|-12(hn)---| 
A|----------| 
E|----------| 

e|-----------------------------------------------------------------------0-| 
B|-----------------------------------------------------------------------0-| 
G|-----------------------------------------------------------------------0-| 
D|-----------------------------------------------------------------------5-| 
A|-2--2-2-2--2-2-2--2-2-2--2-2-2--2-2-2--2-2-2--2-2-2--2-2-2--2-2-4-5----5-| 
E|-0--0-0-0--0-0-0--0-0-0--0-0-0--0-0-0--0-0-0--0-0-0--0-0-0--0-0-2-3----3-| 

Part A: E5 C5 C5/B A5 G E5 

e|---------------------------------------------------------------| 
B|---------------------------------------------------------------| 
G|---------------------------------------------------------------| 
D|---------------------------------------------------------------| 
A|-2-2-2-2--2-2-2--2-2-2--2-2-2--2-2-2--2-2-2--2-2-2--2-2-2--2-2-| 
E|-0-0-0-0--0-0-0--0-0-0--0-0-0--0-0-0--0-0-0--0-0-0--0-0-0--0-0-| 

e|-------------------------------------------------| 
B|-------------------------------------------------| 
G|-5--5--5-----------------------------------------| 
D|-5--5--5--2--------------------------------------| 
A|-3--3--2--0-------2--2-2-2--2-2-2--2-2-2--2-2-2--| 
E|-------------3~~--0--0-0-0--0-0-0--0-0-0--0-0-0--| 

Chorus:  

e|--------------------------------------------------| 
B|--------------------------------------3-----2---2-| 
G|--------------------------------------2-----2---2-| 
D|-5-5-2---------2-4-4-4-2-0-2----------0-----2---2-| 
A|-3-2-0-2-2-2---3-5-7-5-3-0-0-2-2-2----------0---0-| 
E|-------0-0-0-----------------0-0-0----------------| 

Intro 2:E5 F#5 G5 E5 F#5 G6 (2x) 

e|-12hn--------------------------------| 
B|-----------12hn----------------------| 
G|------7hn------------12hn------------| 
D|----------------7hn------------12hn--| 
A|--------------------------7hn--------| 
E|-------------------------------------| 

Part B: 

Guitar 1: E5 G5 A5 D5 E5 C5 A5 

e|---------------------------------------------------------------| 
B|---------------------------------------------------------------| 
G|---------------------------------------------------------------| 
D|-----------------------------------------------------------7/9-| 
A|-2--2-2-2--2-2-2--2-2-2--2-2-2--2-2-2--2-2-2--2-2-2----5/7-5/7-| 
E|-0--0-0-0--0-0-0--0-0-0--0-0-0--0-0-0--0-0-0--0-0-0----3/5-----| 

e|---------------------------------------------------------------| 
B|---------------------------------------------------------------| 
G|---------------------------------------------------------------| 
D|-----------------------------------------------------------7/9-| 
A|-2--2-2-2--2-2-2--2-2-2--2-2-2--2-2-2--2-2-2--2-2-2----5/7-5/7-| 
E|-0--0-0-0--0-0-0--0-0-0--0-0-0--0-0-0--0-0-0--0-0-0----3/5-----| 

e|----------| 
B|----------| 
G|----------| 
D|--5--2----| 
A|--3--0--2-| 
E|--------0-| 

Guitar 2: E5 G5 A5 D5 E5 C5 A5 

e|---------------------------------------------------------------| 
B|---------------------------------------------------------------| 
G|---------------------------------------------------------------| 
D|-----------------------------------------------------------7/9-| 
A|-2--2-2-2--2-2-2--2-2-2--2-2-2--2-2-2--2-2-2--2-2-2----5/7-5/7-| 
E|-0--0-0-0--0-0-0--0-0-0--0-0-0--0-0-0--0-0-0--0-0-0----3/5-----| 

e|---------------------------------------------------------------| 
B|---------------------------------------------------------------| 
G|---------------------------------------------------------------| 
D|-----------------------------------------------------------7/9-| 
A|-2--2-2-2--2-2-2--2-2-2--2-2-2--2-2-2--2-2-2--2-2-2----5/7-5/7-| 
E|-0--0-0-0--0-0-0--0-0-0--0-0-0--0-0-0--0-0-0--0-0-0----3/5-----| 

e|-----------------------------------------------------------------| 
B|-1-----1------------------1--------------------------------3-3-2-| 
G|---0-----2-0----------0-----0--------2----2-------------2--2-2-2-| 
D|-----2-------2-2--0-2---2-----2-----------2---2-----2------------| 
A|----------------------------------0----0----0---2h4---4----------| 
E|-----------------------------------------------------------------| 

Pre-solo: E5 F#5 G5 A5 

e|-----------------------------------------------------| 
B|-----------------------------------------------------| 
G|-----------------------------------------------------| 
D|-----------------------------------------------------| 
A|-2--2-2-2--2-2-2--2-2-2--2-2-2--2-2-2--2-2-2---4-5-7-| 
E|-0--0-0-0--0-0-0--0-0-0--0-0-0--0-0-0--0-0-0---2-3-5-| 

Solo: 

e|------------------14b15--14-15-17------------------------------------------| 
B|-15b17-(17)r15--------------------14-15-17---------------------------------| 
G|----------------12-------------------------14-15-17-----------12-14-12-----| 
D|----------------------------------------------------14-15-16--12-14-12-----| 
A|-----------------------------------------------------------------------12\-| 
E|---------------------------------------------------------------------------| 

e|------------------12-14-15-14-12-------12-14-15-17-17b19r17--| 
B|-15b17r15p12---------------------15-12-----------------------| 
G|-------------------------------------------------------------| 
D|-------------14~\--------------------------------------------| 
A|-------------------------------------------------------------| 
E|-------------------------------------------------------------| 


e|-15-17b19-(19)r17p15------15p12----12-15p12----12-15p12----12-15p12-| 
B|---------------------17~\-------15----------15----------15----------| 
G|--------------------------------------------------------------------| 
D|--------------------------------------------------------------------| 
A|--------------------------------------------------------------------| 
E|--------------------------------------------------------------------| 

e|---------------| 
B|-15p12-----12\-| 
G|-------14--12\-| 
D|---------------| 
A|---------------| 
E|---------------| 

Especial: 

e|---------12ah---14--12ah--10-10-10-10-10--12ah| 
B|---------12ah---14--12ah-----10-10-10-10--12ah| 
G|--19ah---12ah---14--12ah-----11-11-11-11--12ah| 
D|--19ah----------------------------------------| 
A|----------------------------------------------| 
E|----------------------------------------------| 

e|-10-10-10-10-10-10-12ah---10--12-| 
B|----10-10-10-10-10-12ah-10--12---| 
G|----11-11-11-11-11-12ah----------| 
D|---------------------------------| 
A|---------------------------------| 
E|---------------------------------| 

e|-12-12-12-12-12-12-12-12-12-12-12-12-12-12-12-12-| 
B|-15-15-15-15-14-14-14-14-13-13-13-13-12-12-12-12-| 
G|-------------------------------------------------| 
D|-------------------------------------------------| 
A|-------------------------------------------------| 
E|-------------------------------------------------| 

End: 

Guitar 1: 

e|--------------------------------------| 
B|--------------------------------------| 
G|--------------------------------------| 
D|--------------------------------------| 
A|-2--2-2-2--2-2-2--2-2-2--2-2-2--4-5-7-| 
E|-0--0-0-0--0-0-0--0-0-0--0-0-0--2-3-5-| 

e|----------------------------------------------------| 
B|----------------------------------------------------| 
G|----------------------------------------------------| 
D|----------------------------------------------------| 
A|-2--2-2-2--2-2-2--2-2-2--2-2-2--2-2-2--2-2-2--4-5-7-| 
E|-0--0-0-0--0-0-0--0-0-0--0-0-0--0-0-0--0-0-0--2-3-5-| 

Guitar 2: 

e|-------------------------------------------------------| 
B|-------------------------------------------------------| 
G|-------------------------------------------------------| 
D|----------------------------------------------11-12-14-| 
A|-2--2-2-2--2-2-2--2-2-2--2-2-2--2-2-2--2-2-2--9--10-12-| 
E|-0--0-0-0--0-0-0--0-0-0--0-0-0--0-0-0--0-0-0-----------| 

  

cifra enviadacorrigido por:Acelot
enviado poranônimo
top 5 | heart
top rock'n roll
Outras músicas do artista letras do(a) Heart
Top cifras »Top artistas »
Petaxxon Comunicação Online
Cifras.com.br - Melhor e mais completo site de cifras e tablaturas do Brasil
Mais de 1 milhão de acordes de músicas cadastradas desde 2003
As informações contidas no nosso site são colaborações de seus usuários e podem conter erros, sendo assim, não nos responsabilizamos sobre nenhuma destas.
close
menos
mais
close
Cor dos acordes:

Cor da letra:

 

save
close
close
 
redimensionar