Cifras e Tablaturas
Heitor Villa Lobos

Heitor Villa Lobos

Choro Nº1 Tablatura Verificada

Cifras Cancelar Versão de Impressão
cifras

Heitor Villa Lobos - Choro Nº1

fixar na tela  
Exibindo: vídeo-aula ver clipes redimensionar
  

-----------2--2-----------3--2--0-------------------------------   
-----5--8--2--2--------4-----0--0-------------------------------   
--4--------3--3-----4--------0--0-------------------------------   
-----------4----------------------------------------------------   
-----------4-----2----------------------------------------------   
-----------2-----------------0----------------------------------   


----------------------------------------------------------------   
-------1--0-----------------------------------------------------   
-----0----2-----------5-----------------------------------------   
---2------1---------5------4--2---------------------------------   
------------------6---------------------------------------------   
-3--------2--2--5--------0--------------------------------------   




----------2--2-------3--2--0------0--------------0--3--2--0-----   
----5--8--2--2-----4----3-------0---3--3--2----2-------2--2-----   
-4--------3--3---4------0--------------0--0------------0--0-----   
----------4-------------------------------2---------------------   
----------4----2--------------2--------0-----0---------0--------   
----------2-------------0---------------------------------------   



-0---7--7--5--7--5--10--7--5--3---------------------------------   
---8----7--7--7--7---------3--3---------------------------------   
--------5--5--5--5---------4--4---------------------------------   
----------------------------------------------------------------   
--------5--------5----------------------------------------------   
---------------------------3------------------------------------   



----------5--3--5--3--8--5--3--1--------------------------------   
----------5--5--5--5--------1--1--------------------------------   
----------3--3--3--3--------2--2--------------------------------   
----------------------------------------------------------------   
-6--5--4--3--------3--------------------------------------------   
----------------------------1-----------------------------------   



------------3--1--0--1--3--4--5p0------------------------2-3--2-   
------------3--3--3--3-------------1-------------------2--------   
------------0--1--0--1---------------2---------------3----------   
---------------------------------------2------------------------   
-3h4--3--2--1--------1--------0-----------3--0------------------   
------------------------------------------------3--2----------2-   


-------------2--------------------------------------------------   
-5----4----4----hn13--------------------------------------------   
---3-----4------------------------------------------------------   
----------------------------------------------------------------   
------2---------------------------------------------------------   
----------------------------------------------------------------   


-0---7--7--5--7--5--3--5--3--5--3--3--1--3--1--3--1--3--1--3----   
---8----7--7--7--3--3--3--5--5--5--1--1--1--2--3--3--3--3--3----   
--------5--5--5--4--4--4--3--3--3--2--2--2--1--1--1--1--1--1----   
----------------------------------------------------------------   
--------5-----------------3-----------------1-----1-------------   
-----------------3-----------------1----------------------------   


-0--3--0--3--0--0--2--0--2--0--2--3p0-------------------2-------   
-2--2--2--2--2--1--1--1--1--1--1--0----0--------------2---2-----   
-0--0--0--0--0--0--0--0--0--0--0--0------0----------3-----------   
----------------------------------2--------2--------------------   
-1--------------1-----------------2----------2------------------   
-----------------------------------------------3--2-------------   


-------2--5----0---------hn13-----------------------------------   
-----4------4------------hn13-----------------------------------   
---2--------------hn13------------------------------------------   
----------------------------------------------------------------   
-2--------------------------------------------------------------   
---------------0------------------------------------------------   


2ª Parte   

----5--3----------------------1--0------------------------------   
---3---3--------3--6--5----5--3--3--------3--3--2-----2---------   
--4----4------4----3--3----3--1--1------1-------0-----0---------   
------------3------5--5----5----------0---------------2---------   
----------5--------3----------------2--------0------------------   
-3-----------------------3----0--------------------3------------   




-0-----------0----3----5---------------------7--------7---------   
----3--0--1-------1-------8--5h8p5--------------10-------10-----   
----2-----2----3--0-----------------5---0--------7--------7-----   
----3-----1---------------------------7---------10-------10-----   
------------------3--0---------------------7--------9-----------   
-1--------2-----------------------------------------------------   



----5--3-----5--3-----------------------------------------------   
----3--3-----3--3-----------------------------------------------   
----3--4-----4--4-----------------------------------------------   
-3--------3-----------------------------------------------------   
----------------------------------------------------------------   
----------------------------------------------------------------   



-------5---0-------------3--2----2--3-----2--0----2--0----------   
----8----8---1-----------0--0----0--0-----1--1----3--3----------   
---5-----------2--0------2--2----2--2-----2--2----2--2----------   
--5-----------------2-1--------1-------0------------------------   
-7---------------------------------------------3----------------   
----------------------------------------------------------------   




------5---0-------------3--2----2-----2----2-----2----2----2---   
----8---8---1-----------0--0----0-----0----1-----1----3----3---   
---5----------2--0------2--2----2--2--2----2--2-------2--2-----   
--5----------------2--1-------1----------0---------------------   
-7--------------------------------------------------3----------   
---------------------------------------------------------------           (C)*****   



---0-----0--0--0---------0----0-----------0--3-----5--3--0--3---   
---3-----1--3--3---------1----1-----------1-------2---------1---   
---1--1-----------0------0--0-----5--7----0------2----------2---   
------------------------------------------------------------0---   
-1----------1-------2--3----------------3------0----------------   
--------------------------------4-------------------------------   



-0----0---------------------------------------------------------   
---1----3--8----------------------------------------------------   
-----------7----------------------------------------------------   
-----------8----------------------------------------------------   
-----------7----------------------------------------------------   
------3----0----------------------------------------------------   



-0-----------0----0--5-------------------7---------5--3---------   
----3--0--1----3--1----8--5h8p5-------------10-----3--3-----1---   
----2-----2-------0---------------7----------7-----4--4---0-----   
----3-----1---------------------5---0---------------------------   
------------------3--0-----------------7---------3-------3------   
-1--------2-----------------------------------------------------   



-0-----8--------------------------------------------------------   
----------------------------------------------------------------   
----------------------------------------------------------------   
----10----------------------------------------------------------   
----------------------------------------------------------------   
----------------------------------------------------------------   


3ª Parte   


--------------0--0----------------------------------------------   
-----0--0--0--2--2--4--4----------------------------------------   
----1---------0--0--4--4-----------1--1--1--6--6--5--5----------   
---2----------------4--4-----------2--2--2--7--7--6--6----------   
--2-----------1-----0-----0--------4--4--4--9--9--7--7----------   
-0---------------------------4--2--0--------0-----0-------------   




----------4--4--4--4---------4---4----------2--2--2----------2--   
----------4-----4--4--7----5---5------------2--2--2--5-----4----   
----------5-----5--5-------6---6------------3--3--3--------2----   
---------------------------6------------------------------------   
------------------------0--4-----4----------------------3-------   
-0--2--3--4--------4----------------0--1--2-------2--------2----   



----------------------------------------------------------------   
-4--------------------------------------------------------------   
-2--------------------------------------------------------------   
----------------------------------------------------------------   
---2--0---------------------------------------------------------   
---------2--0---------------------------------------------------   



---------2--2--4--2----------------------------------------hn13-   
---------2--2--4--4----0-------0------2--1--0---------hn13------   
---------2--2--2--2----1-------4------1-----2--2----------------   
-----------------------2-------3------2-----1----4--2-----------   
-------0-------0-----2----3--4---2--1-------2-------------------   
-0-2-4----------------------------------------------0-----------   



----------2--2-------3--2--0----------------------------0-3--2--   
---5/8-8--2--2-----4-------0-----1-0------------------0------2--   
-4--------3--3---4---------0----0-----2----------------------3--   
----------4--------------------2------1------5--4-2----------4--   
----------4----2---------------------------6-----------------4--   
----------2-------------0----3-----2-----5------0---0--------2--   




---------3--2--0-----0--------------3--2--0----0----------------   
-------4----3------0---3--3--2----2----2--2---------------------   
-----4------0-------------0--0---------0--0---------------------   
-4------------------------2--2---------2------------------------   
-4-2-------------2--------0-----0------0-----0------------------   
-2----------0---------------------------------------------------   




----7--7--7--5--5--5--3--5--3--3--3--3--3--3--1--3--3--3--0--3--   
-8--7--7-----3--3-----5--5--3--1--1--1--3--3--3--3--1--3--2--2--   
----5--------4--4-----3--------2--------1--1--1--1-----1--0--0--   
----------------------------------------------------------------   
----5-----------------3-----------------------------------1-----   
-------------3-----------------1--------1--------1--------------   





-0--3--0--3--0--2--0--2--0--2--3p0----------------2----2--5---0-   
-2--2--2--2--1--1--1--1--1--1--0---0-------------2---2------4---   
-0--0--0--0--0--0--0--0--0--0--0-----0----------3----4----------   
-------------------------------2-------2------------------------   
-------------1-----------------2---------2-----------2----------   
-------------------------------0-----------3-0-2--------------0-   




------hn13------------------------------------------------------   
------hn13------------------------------------------------------   
-hn13-----------------------------------------------------------   
----------------------------------------------------------------   
----------------------------------------------------------------   
----------------------------------------------------------------   


  

top 5 | heitor villa lobos
top infantis
Outras músicas do artista letras do(a) Heitor Villa Lobos
Top cifras »Top artistas »
Petaxxon Comunicação Online
Cifras.com.br - Melhor e mais completo site de cifras e tablaturas do Brasil
Mais de 1 milhão de acordes de músicas cadastradas desde 2003
As informações contidas no nosso site são colaborações de seus usuários e podem conter erros, sendo assim, não nos responsabilizamos sobre nenhuma destas.
close
menos
mais
close
Cor dos acordes:

Cor da letra:

 

save
close
close
 
redimensionar