Cifras e Tablaturas
Heitor Villa Lobos

Heitor Villa Lobos

Prelúdio N. 3

Cifras Cancelar Versão de Impressão
cifras

Heitor Villa Lobos - Prelúdio N. 3

fixar na tela  
Exibindo: vídeo-aula ver clipes redimensionar

Tom:

  
E|----|-------------3-1|-0-||--------------------7-8|-8-108|-7----||---------0---5-3| 
B|----|---------3-2-0--|-0-||------------0---5-8----|-0----|-0----||-----0-----3-0--| 
G|----|-----3-2-0------|-0-|3----------0---5--------|-8----|-7----||-0-----2-0------| 
D|----|-3-2-0----------|-2-|4--------2--------------|-7----|-6-0--||---3-0----------| 
A|-3-2|-0--------------|-3-||----2-3----------------|-8----|-7---3||-0--------------| 
E|-0--|----------------|---||0-3--------------------|------|---0--||----------------| 

E|-2-||--------------0---6-9-12|-12-9-6||-5-7-8-||-10-7-4||-2-4-5|-5-7-8-7-108-7-5| 
B|-2-||------------2---7-------|-12-9-6||-5-7-8-||-10-7-4||-2-4-5|-5--------------| 
G|-3-||----------3-------------|-12-9-6||-5-7-8-||-10-7-4||-2-4-5|-5--------------| 
D|-4-||------2-4---------------|-11-8-5||-4-6-7-||-9--6-3||-1-3-4|-4--------------| 
A|-4-||--1-4-------------------|-0=====||-0==-0-||-0=====||-0==-0|-0==============| 
E|-2-||2-----------------------|-------||-------||-------||------|----------------| 

E|5--3-7-5-8-7-5|------8---------10|-10-10-12-10-8|-7-8-10-| 
B|5--5-5--------|10-8----11-10-8---|-0--0--0--0--0|-0-0-0--| 
G|3--3-3--------|-9-9--9-----------|-10-10-12-10-8|-7-8-10-| 
D|0-------------|-8-8--8-----------|-9--9--11-9--7|-6-7-9--| 
A|--------------|------------------|-10-10-12-10-8|-7-8-10-| 
E|--------------|10----------------|-------0------|-0------| 

E|------------------7-9-10||-10-10-12-10-8-|-7-108-7|-7-108-7-|1212121212121212| 
B|----------0---6-8-------||-0--0--0--0--0-|-0------|-0-----0-|----------------| 
G|--------0---7-----------||-10-10-12-10-8-|-7------|-7-------|9===============| 
D|----0-3-----------------||-9--9--11-9--7-|-6------|-6-------|----------------| 
A|--2---------------------||-10-10-12-10-8-|-7------|-7-------|----------------| 
E|3-----------------------||-------0-------|-0------|-0-------|----------------| 

Molto adagio e (dolorido) 
E|11121012--12--12--12--12--10|9-108-107-10--10--10--10--8|7-8-6-8-5-8---8---8---8---7| 
B|--------13--12--10------6---|------------10--8-------5--|------------8---6---5---3--| 
G|--------------------12--5---|--------------------10--5--|------------------------4--| 
D|------------------------7---|------------------------5--|------------------------3--| 
A|------------------------5---|---------------------------|------------------------0--| 
E|----------------------------|------------------------5--|---------------------------| 

 f expressivo 
E|6-7-5-7-4-7---7---7---7---5|4-5-3-5---5---5---5---5--4|3-4-1-4-0-4---4--4---4-7-5-8-7| 
B|------------6---5----------|--------6---5---3---------|------------3---1--0---5---7--| 
G|--------------------7---5--|--------------------5---4-|-----------------------5---7--| 
D|------------------------5--|------------------------3-|------------------------------| 
A|------------------------7--|------------------------5-|-----------------------0------| 
E|------------------------5--|------------------------4-|------------------------------| 

E|108-121012121212121212|11121012--12--12--12--12--10|9-108-107-10--10--10--10--8| 
B|8---10--9-------------|--------13--12--10------6---|------------10--8-------5--| 
G|8---10--9-------------|--------------------12--5---|--------------------10--5--| 
D|----------------------|------------------------7---|------------------------5--| 
A|--------11------------|------------------------5---|---------------------------| 
E|--------0-------------|----------------------------|------------------------5--| 

E|7-8-6-8-5-8---8---8---8---7|6-7-5-7-4-7---7---7---7---5|4-5-3-5---5---5---5---5--4| 
B|------------8---6---5---3--|------------6---5----------|--------6---5---3---------| 
G|------------------------4--|--------------------7---5--|--------------------5---4-| 
D|------------------------3--|------------------------5--|------------------------3-| 
A|------------------------0--|------------------------7--|------------------------5-| 
E|---------------------------|------------------------5--|------------------------4-| 

E|3-4---4---4---4--4---4-7-5-||----|| 
B|----6---5---3----------5---||----||  
G|----------------5--4---5---||---*||  
D|---------------------------||-7-*|| 
A|-----------------------0---||-0--||  
E|---------------------------||----|| 
  

top 5 | heitor villa lobos
top infantis
Outras músicas do artista letras do(a) Heitor Villa Lobos
Top cifras »Top artistas »
Petaxxon Comunicação Online
Cifras.com.br - Melhor e mais completo site de cifras e tablaturas do Brasil
Mais de 1 milhão de acordes de músicas cadastradas desde 2003
As informações contidas no nosso site são colaborações de seus usuários e podem conter erros, sendo assim, não nos responsabilizamos sobre nenhuma destas.
close
menos
mais
close
Cor dos acordes:

Cor da letra:

 

save
close
close
 
redimensionar