Cifras e Tablaturas
Heldmaschine

Heldmaschine

Radioaktiv

Cifras Cancelar Versão de Impressão
cifras

Heldmaschine - Radioaktiv

fixar na tela  
Exibindo: vídeo-aula ver clipes redimensionar

Tom:

  
Intro 
D|---------------|-----------------| 
A|---------------|-----------------| 
F|8---8-----8---8|8---8---10---11--| 
C|x---x-----x---x|x---x---x----x---| 
G|6---6-----6---6|6---6---8----9---| 
C|0-0-0-0-0-0-0-0|0-0-0-0-0--0-0--0| 

Verse 
Nothing is played in the verse 

Chorus 
D|---------------|-----------------| 
A|---------------|-----------------| 
F|8---8-----8---8|8---8---10---11--| 
C|x---x-----x---x|x---x---x----x---| 
G|6---6-----6---6|6---6---8----9---| 
C|0-0-0-0-0-0-0-0|0-0-0-0-0--0-0--0| 

Outro 
D|---------------|-----------------| 
A|---------------|-----------------| 
F|8---8-----8---8|8---8---10---11--| 
C|x---x-----x---x|x---x---x----x---| 
G|6---6-----6---6|6---6---8----9---| 
C|0-0-0-0-0-0-0-0|0-0-0-0-0--0-0--0| 

************************************ 

| x   Dead note 

************************************ 
  

top 5 | heldmaschine
top rock'n roll
Outras músicas do artista letras do(a) Heldmaschine
Top cifras »Top artistas »
Petaxxon Comunicação Online
Cifras.com.br - Melhor e mais completo site de cifras e tablaturas do Brasil
Mais de 1 milhão de acordes de músicas cadastradas desde 2003
As informações contidas no nosso site são colaborações de seus usuários e podem conter erros, sendo assim, não nos responsabilizamos sobre nenhuma destas.
close
menos
mais
close
Cor dos acordes:

Cor da letra:

 

save
close
close
 
redimensionar