Cifras e Tablaturas
Helmet

Helmet

Unsung

Cifras Cancelar Versão de Impressão Print

Helmet - Unsung

Tom: D

  			

Intro 


 
|------------------------|--------------| 
|------------------------|--------------| 
|------------------------|--------------| 
|------------------------|----0~~-------| Repetir 12x 
|-2-2-2--3-3-3--5-5------|----0~~-------|           Depois do baixo na intro... 
|-2-2-2--3-3-3--5-5------|----0~~-------| 
 


Verso 1 

 
|---------------------------------------------------------------------| 
|---------------------------------------------------------------------| 
|---------------------------------------------------------------------| 
|--2--2--2---2--0--2----2--2--2----2--0--2---2-0-2--2-2-2-3-3-3-5-5---|    Repetir 6X 
|--2--2--2---2--0--2----2--2--2----2--0--2---2-0-2--2-2-2-3-3-3-5-5---| 
|--2--2--2---2--0--2----2--2--2----2--0--2---2-0-2--2-2-2-3-3-3-5-5---| 
 


Refrão 

 
|--------------------------------------------------------------------| 
|--------------------------------------------------------------------| 
|--------------------------------------------------------------------| 
|-0-0-0-0-0-0-0-0-0-0-0-0-0-0-0-0---2-2-2-2-2-2-2-2-2-2-2-2-2-2-2-2--| 
|-0-0-0-0-0-0-0-0-0-0-0-0-0-0-0-0---2-2-2-2-2-2-2-2-2-2-2-2-2-2-2-2--| 
|-0-0-0-0-0-0-0-0-0-0-0-0-0-0-0-0---2-2-2-2-2-2-2-2-2-2-2-2-2-2-2-2--| 
                                                                         Repetir 2X 

 
|------------------------------------------------------------------------------------| 
|------------------------------------------------------------------------------------| 
|------------------------------------------------------------------------------------| 
|-10-10-10-10-10-10-10-10-10-10-10-10-10-10-10-10---7-7-7-7-7-7-7-7-7-7-7-7-7-7-7-7--| 
|-10-10-10-10-10-10-10-10-10-10-10-10-10-10-10-10---7-7-7-7-7-7-7-7-7-7-7-7-7-7-7-7--| 
|-10-10-10-10-10-10-10-10-10-10-10-10-10-10-10-10---7-7-7-7-7-7-7-7-7-7-7-7-7-7-7-7--| 
 

==Drum Break== 

 
|-----------------------| 
|-----------------------| 
|-----------------------| 
|-0------2-0-2----0-----| 
|-0------2-0-2----0-----| 
|-0------2-0-2----0-----| 
 


Verso 2 

 
|-----------| 
|-----------| 
|-----------| 
|-2--2--2---|  Fazer apenas 1x no começo do riff 
|-2--2--2---| 
|-2--2--2---| 
 

 
|--------------------------------------------------------------------| 
|--------------------------------------------------------------------| 
|--------------------------------------------------------------------| 
|-2--2--2---2--0--2----2--2--2----2--0--2---2-0-2--2-2-2-3-3-3-5-5---|    Repetir 6X 
|-2--2--2---2--0--2----2--2--2----2--0--2---2-0-2--2-2-2-3-3-3-5-5---| 
|-2--2--2---2--0--2----2--2--2----2--0--2---2-0-2--2-2-2-3-3-3-5-5---| 
 


Refrão 2 Apenas uma pequena diferença do 1º 

 
|--------------------------------------------------------------------| 
|--------------------------------------------------------------------| 
|--------------------------------------------------------------------| 
|-0-0-0-0-0-0-0-0-0-0-0-0-0-0-0-0---2-2-2-2-2-2-2-2-2-2-2-2-2-2-2-2--| 
|-0-0-0-0-0-0-0-0-0-0-0-0-0-0-0-0---2-2-2-2-2-2-2-2-2-2-2-2-2-2-2-2--| 
|-0-0-0-0-0-0-0-0-0-0-0-0-0-0-0-0---2-2-2-2-2-2-2-2-2-2-2-2-2-2-2-2--| 
                                                                                      1x 

 
|---------------------------------------------------------------------------------| 
|---------------------------------------------------------------------------------| 
|------------------------------------------------------------------5-5-5-5-5-5-5--| 
|-10-10-10-10-10-10-10-10-10-10-10-10-10-10-10---7-7-7-7-7-7-7-7-7-5-3-3-3-3-3-3--| 
|-10-10-10-10-10-10-10-10-10-10-10-10-10-10-10---7-7-7-7-7-7-7-7-7-3-3-3-3-3-3-3--| 
|-10-10-10-10-10-10-10-10-10-10-10-10-10-10-10---7-7-7-7-7-7-7-7-7----------------| 
 

  =Depois disso, segue normal como no Verso 1 
 
|--------------------------------------------------------------------| 
|--------------------------------------------------------------------| 
|--------------------------------------------------------------------| 
|-0-0-0-0-0-0-0-0-0-0-0-0-0-0-0-0---2-2-2-2-2-2-2-2-2-2-2-2-2-2-2-2--| 
|-0-0-0-0-0-0-0-0-0-0-0-0-0-0-0-0---2-2-2-2-2-2-2-2-2-2-2-2-2-2-2-2--| 
|-0-0-0-0-0-0-0-0-0-0-0-0-0-0-0-0---2-2-2-2-2-2-2-2-2-2-2-2-2-2-2-2--| 
                                                                            1x 

 
|--------------------------------------------------------------------| 
|--------------------------------------------------------------------| 
|-5-5-5-5-5-5-5-5-5-5-5-5-5-5-5-5------------------------------------| 
|-5-5-5-5-5-5-5-5-5-5-5-5-5-5-5-5---7-7-7-7-7-7-7-7-7-7-7-7-7-7-7-7--| 
|-3-3-3-3-3-3-3-3-3-3-3-3-3-3-3-3---7-7-7-7-7-7-7-7-7-7-7-7-7-7-7-7--| 
|-----------------------------------7-7-7-7-7-7-7-7-7-7-7-7-7-7-7-7--| 
 

==Breakdown== 
( Essa parte requerer paciência e treino, e também é misturada, mais fácil pegar o ritmo ouvindo a musica) 

 
|------------------------------------------------------------| 
|------------------------------------------------------------| 
|------------------------------------------------------------| 
|-5-7---7-5-7-7-5-7-7-5-7-7-5-7-7-5-7-7-5-7-7-5-7-7-8-7-5-7--| 
|-5-7---7-5-7-7-5-7-7-5-7-7-5-7-7-5-7-7-5-7-7-5-7-7-8-7-5-7--| 
|-5-7---7-5-7-7-5-7-7-5-7-7-5-7-7-5-7-7-5-7-7-5-7-7-8-7-5-7--| 
 

 
|--------------|------|---------------------------| 
|--------------|------|---------------------------| 
|-0--2-2-0-2-3-|---5--|--0-----0--2---------------| 
|-0--2-2-0-2-3-|---5--|--0-----0--2---------------| 
|-0--2-2-0-2-3-|---5--|--0-----0--2---------------| 
 


Outro 

 
|------------------------------------------------------------| 
|------------------------------------------------------------| 
|--12-12-12-12-12-12-12-12-12-12-12-12-12-12-12-12-----------| 
|---x--x--x--x--x--x--x--x--x--x--x--x--x--x--x--x-----------| 
|--10-10-10-10-10-10-10-10-10-10-10-10-10-10-10-10-----------| 
|------------------------------------------------------------| 
 

 
|------------------------------------------------------------| 
|------------------------------------------------------------| 
|--10-10-10-10-10-10-10-10-10-10-10-10-10-10-10-10-----------| 
|---x--x--x--x--x--x--x--x--x--x--x--x--x--x--x--x-----------| 
|---8--8--8--8--8--8--8--8--8--8--8--8--8--8--8--8-----------| 
|------------------------------------------------------------| 
 

 
|------------------------------------------------------------| 
|------------------------------------------------------------| 
|--12-12-12-12-12-12-12-12-12-12-12-12-12-12-12-12-----------| 
|---x--x--x--x--x--x--x--x--x--x--x--x--x--x--x--x-----------|              2X 
|--10-10-10-10-10-10-10-10-10-10-10-10-10-10-10-10-----------| 
|------------------------------------------------------------| 
 

 
|------------------------------------------------------------| 
|------------------------------------------------------------| 
|--10-10-10-10-10-10-10-10-10-10-10-10-10-10-10-10-----------| 
|---x--x--x--x--x--x--x--x--x--x--x--x--x--x--x--x-----------| 
|---8--8--8--8--8--8--8--8--8--8--8--8--8--8--8--8-----------| 
|------------------------------------------------------------| 
 

 
|------------------------------------------------------------| 
|------------------------------------------------------------| 
|--12-12-12-12-12-12-12-12-12-12-12-12-12-12-12-12-----------| 
|---x--x--x--x--x--x--x--x--x--x--x--x--x--x--x--x-----------| 
|--10-10-10-10-10-10-10-10-10-10-10-10-10-10-10-10-----------| 
|------------------------------------------------------------| 
 

 
|------------------------------------------------------------| 
|------------------------------------------------------------| 
|---9--9--9--9--9--9--9--9--9--9--9--9--9--9--9--9-----------| 
|---x--x--x--x--x--x--x--x--x--x--x--x--x--x--x--x-----------| 
|---7--7--7--7--7--7--7--7--7--7--7--7--7--7--7--7-----------| 
|------------------------------------------------------------| 
 

 
|------------------------------------------------------------| 
|------------------------------------------------------------| 
|--10-10-10-10-10-10-10-10-10-10-10-10-10-10-10-10-----------| 
|---x--x--x--x--x--x--x--x--x--x--x--x--x--x--x--x-----------| 
|---8--8--8--8--8--8--8--8--8--8--8--8--8--8--8--8-----------| 
|------------------------------------------------------------| 
 

 
|--------------| 
|--------------| 
|-0--2-2-0-2-3-| 
|-0--2-2-0-2-3-| 
|-0--2-2-0-2-3-| 
    	
fixar
fixar inscrever-se

enviado porenviado por: VsWorld
cifra enviadaCorrigida por: sem correções
logo top cifrasComente
ico música do artistaMúsicas deste artista
ico curtiuCurtiu?
ico destaqueDestaque
Petaxxon Comunicação Online

Cifras.com.br - Melhor e mais completo site de cifras e tablaturas do Brasil Mais de 1 milhão de acordes de músicas cadastradas desde 2003
As informações contidas no nosso site são colaborações de seus usuários e podem conter erros, sendo assim, não nos responsabilizamos sobre nenhuma destas.

close
menos
mais
close
Cor dos acordes:

Cor da letra:

close
Alinhar acordes a direita Alinhar acordes a esquerda Alinhar acordes em baixo Alinhar acordes no topo
close
  Mostrar todos os acordes Esconder acordes muito fáceis Esconder acordes fáceis Esconder acordes intermediários
redimensionar
glossário